  0
SECTION
  2
HEADER
  9
$ACADVER
  1
AC1006
  9
$INSBASE
 10
0.0
 20
0.0
 30
0.0
  9
$EXTMIN
 10
     -169.177734
 20
      -72.413742
  9
$EXTMAX
 10
      197.895782
 20
      169.005219
  9
$LIMMIN
 10
     -169.177734
 20
      -72.413742
  9
$LIMMAX
 10
      197.895782
 20
      169.005219
  9
$VIEWCTR
 10
       14.359024
 20
       14.359024
  9
$ORTHOMODE
 70
     0
  9
$ANGBASE
 50
0.0
  9
$ANGDIR
 70
     0
  9
$SPLINETYPE
 70
     6
  9
$SPLINESEGS
 70
     8
9
$DIMASZ
 40
        4.000000
9
$DIMEXE
 40
        1.000000
9
$DIMEXO
 40
        2.500000
9
$DIMTXT
 40
        6.000000
9
$DIMGAP
 40
        1.000000
9
$DIMTAD
 70
1
9
$DIMTIH
 70
0
9
$DIMTOH
 70
0
  0
ENDSEC
  0
SECTION
  2
TABLES
  0
TABLE
  2
LTYPE
 70
     5
  0
LTYPE
  2
CONTINUOUS
 70
    64
  3
SOLID LINE
 72
    65
 73
     0
 40
0.0
  0
LTYPE
  2
DASHED
 70
    64
  3
-- -- -- -- -- --
 72
    65
 73
     2
 40
  0.75  
 49
  0.50  
 49
 -0.25  
  0
LTYPE
  2
DOT
 70
    64
  3
....................
 72
    65
 73
     2
 40
  0.25  
 49
  0.02  
 49
 -0.23  
  0
LTYPE
  2
CENTER
 70
    64
  3
-- . -- . -- . -- .
 72
    65
 73
    4
 40
  2.00  
 49
  1.25  
 49
 -0.25  
 49
  0.25  
 49
 -0.25  
  0
LTYPE
  2
PHANTOM
 70
    64
  3
-- .. -- .. -- ..
 72
    65
 73
    6
 40
  2.50  
 49
  1.25  
 49
 -0.25  
 49
  0.25  
 49
 -0.25  
 49
  0.25  
 49
 -0.25  
  0
ENDTAB
  0
TABLE
  2
LAYER
 70
     6
  0
LAYER
  2
0
 70
    64
 62
     3
  6
CONTINUOUS
  0
LAYER
  2
2
 70
    64
 62
     2
  6
CONTINUOUS
  0
LAYER
  2
4
 70
    64
 62
     2
  6
CONTINUOUS
  0
LAYER
  2
6
 70
    64
 62
     1
  6
CENTER
  0
LAYER
  2
7
 70
    64
 62
     2
  6
CONTINUOUS
  0
LAYER
  2
10
 70
    64
 62
     2
  6
CONTINUOUS
  0
ENDTAB
  0
TABLE
  2
STYLE
 70
     2
  0
STYLE
  2
STANDARD
 70
    64
 40
0.0
 41
1.0
 50
0.0
 71
     0
 42
5.0
  3
ROMANS
  4
BIGFONT
  0
STYLE
  2
BIGFONT
 70
    64
 40
0.0
 41
1.0
 50
0.0
 71
     0
 42
5.0
  3
ROMANS
  4
BIGFONT
  0
ENDTAB
  0
TABLE
  2
VIEW
 70
     0
  0
ENDTAB
  0
TABLE
  2
UCS
 70
     0
  0
ENDTAB
  0
TABLE
  2
DWGMGR
 70
     0
  0
ENDTAB
  0
ENDSEC
  0
SECTION
  2
BLOCKS
  0
BLOCK
  8
0
  2
BLK0001
 70
    64
 10
        0.000000
 20
        0.000000
  0
LINE
  8
4
 10
      -65.000000
 20
       88.661569
 30
        0.000000
 11
      -65.000000
 21
       64.230909
 31
        0.000000
  0
LINE
  8
4
 10
       65.000000
 20
       88.661569
 30
        0.000000
 11
       65.000000
 21
       64.230909
 31
        0.000000
  0
LINE
  8
4
 10
      -61.000000
 20
       67.230909
 30
        0.000000
 11
       61.000000
 21
       67.230909
 31
        0.000000
  0
LINE
  8
4
 10
      -61.000000
 20
       66.159112
 30
        0.000000
 11
      -65.000000
 21
       67.230909
 31
        0.000000
  0
LINE
  8
4
 10
      -65.000000
 20
       67.230909
 30
        0.000000
 11
      -61.000000
 21
       68.302706
 31
        0.000000
  0
LINE
  8
4
 10
      -65.000000
 20
       67.230909
 30
        0.000000
 11
      -61.000000
 21
       67.230909
 31
        0.000000
  0
LINE
  8
4
 10
       61.000000
 20
       68.302705
 30
        0.000000
 11
       65.000000
 21
       67.230909
 31
        0.000000
  0
LINE
  8
4
 10
       65.000000
 20
       67.230909
 30
        0.000000
 11
       61.000000
 21
       66.159112
 31
        0.000000
  0
LINE
  8
4
 10
       65.000000
 20
       67.230909
 30
        0.000000
 11
       61.000000
 21
       67.230909
 31
        0.000000
  0
TEXT
  8
10
 10
       -9.000000
 20
       69.230909
 30
        0.000000
 40
        6.000000
  1
１３０
 50
        0.000000
 41
        1.000000
 51
        0.000000
  7
BIGFONT
  0
ENDBLK
  0
BLOCK
  8
0
  2
BLK0002
 70
    64
 10
        0.000000
 20
        0.000000
  0
LINE
  8
4
 10
      125.895613
 20
       87.661569
 30
        0.000000
 11
      125.895613
 21
       66.359370
 31
        0.000000
  0
LINE
  8
4
 10
      195.895613
 20
       87.661569
 30
        0.000000
 11
      195.895613
 21
       66.359370
 31
        0.000000
  0
LINE
  8
4
 10
      129.895613
 20
       69.359370
 30
        0.000000
 11
      191.895613
 21
       69.359370
 31
        0.000000
  0
LINE
  8
4
 10
      129.895613
 20
       68.287574
 30
        0.000000
 11
      125.895613
 21
       69.359370
 31
        0.000000
  0
LINE
  8
4
 10
      125.895613
 20
       69.359370
 30
        0.000000
 11
      129.895613
 21
       70.431167
 31
        0.000000
  0
LINE
  8
4
 10
      125.895613
 20
       69.359370
 30
        0.000000
 11
      129.895613
 21
       69.359371
 31
        0.000000
  0
LINE
  8
4
 10
      191.895613
 20
       70.431167
 30
        0.000000
 11
      195.895613
 21
       69.359370
 31
        0.000000
  0
LINE
  8
4
 10
      195.895613
 20
       69.359370
 30
        0.000000
 11
      191.895613
 21
       68.287573
 31
        0.000000
  0
LINE
  8
4
 10
      195.895613
 20
       69.359370
 30
        0.000000
 11
      191.895613
 21
       69.359370
 31
        0.000000
  0
TEXT
  8
10
 10
      154.895613
 20
       71.359370
 30
        0.000000
 40
        6.000000
  1
７０
 50
        0.000000
 41
        1.000000
 51
        0.000000
  7
BIGFONT
  0
ENDBLK
  0
BLOCK
  8
0
  2
BLK0003
 70
    64
 10
        0.000000
 20
        0.000000
  0
LINE
  8
4
 10
      123.895613
 20
       89.661569
 30
        0.000000
 11
       99.747385
 21
       89.661569
 31
        0.000000
  0
LINE
  8
4
 10
      123.895613
 20
      144.661563
 30
        0.000000
 11
       99.747385
 21
      144.661563
 31
        0.000000
  0
LINE
  8
4
 10
      102.747385
 20
       93.661569
 30
        0.000000
 11
      102.747385
 21
      140.661563
 31
        0.000000
  0
LINE
  8
4
 10
      103.819181
 20
       93.661569
 30
        0.000000
 11
      102.747385
 21
       89.661569
 31
        0.000000
  0
LINE
  8
4
 10
      102.747385
 20
       89.661569
 30
        0.000000
 11
      101.675588
 21
       93.661569
 31
        0.000000
  0
LINE
  8
4
 10
      102.747385
 20
       89.661569
 30
        0.000000
 11
      102.747385
 21
       93.661569
 31
        0.000000
  0
LINE
  8
4
 10
      101.675589
 20
      140.661563
 30
        0.000000
 11
      102.747385
 21
      144.661563
 31
        0.000000
  0
LINE
  8
4
 10
      102.747385
 20
      144.661563
 30
        0.000000
 11
      103.819182
 21
      140.661563
 31
        0.000000
  0
LINE
  8
4
 10
      102.747385
 20
      144.661563
 30
        0.000000
 11
      102.747385
 21
      140.661563
 31
        0.000000
  0
TEXT
  8
10
 10
      100.747385
 20
      111.161566
 30
        0.000000
 40
        6.000000
  1
５５
 50
       90.000000
 41
        1.000000
 51
        0.000000
  7
BIGFONT
  0
ENDBLK
  0
BLOCK
  8
0
  2
BLK0004
 70
    64
 10
        0.000000
 20
        0.000000
  0
LINE
  8
4
 10
       54.499970
 20
      -29.000005
 30
        0.000000
 11
       98.995178
 21
      -29.000005
 31
        0.000000
  0
LINE
  8
4
 10
       54.499970
 20
       29.000005
 30
        0.000000
 11
       98.995178
 21
       29.000005
 31
        0.000000
  0
LINE
  8
4
 10
       95.995178
 20
      -25.000005
 30
        0.000000
 11
       95.995178
 21
       25.000005
 31
        0.000000
  0
LINE
  8
4
 10
       97.066974
 20
      -25.000004
 30
        0.000000
 11
       95.995178
 21
      -29.000005
 31
        0.000000
  0
LINE
  8
4
 10
       95.995178
 20
      -29.000005
 30
        0.000000
 11
       94.923381
 21
      -25.000005
 31
        0.000000
  0
LINE
  8
4
 10
       95.995178
 20
      -29.000005
 30
        0.000000
 11
       95.995178
 21
      -25.000005
 31
        0.000000
  0
LINE
  8
4
 10
       94.923382
 20
       25.000005
 30
        0.000000
 11
       95.995178
 21
       29.000005
 31
        0.000000
  0
LINE
  8
4
 10
       95.995178
 20
       29.000005
 30
        0.000000
 11
       97.066975
 21
       25.000005
 31
        0.000000
  0
LINE
  8
4
 10
       95.995178
 20
       29.000005
 30
        0.000000
 11
       95.995178
 21
       25.000005
 31
        0.000000
  0
TEXT
  8
10
 10
       93.995178
 20
       -6.000000
 30
        0.000000
 40
        6.000000
  1
５８
 50
       90.000000
 41
        1.000000
 51
        0.000000
  7
BIGFONT
  0
ENDBLK
  0
BLOCK
  8
0
  2
BLK0005
 70
    64
 10
        0.000000
 20
        0.000000
  0
LINE
  8
4
 10
      -47.500000
 20
       36.000005
 30
        0.000000
 11
      -47.500000
 21
       53.195625
 31
        0.000000
  0
LINE
  8
4
 10
       47.499970
 20
       36.000005
 30
        0.000000
 11
       47.499970
 21
       53.195625
 31
        0.000000
  0
LINE
  8
4
 10
      -43.500000
 20
       50.195625
 30
        0.000000
 11
       43.499970
 21
       50.195625
 31
        0.000000
  0
LINE
  8
4
 10
      -43.500000
 20
       49.123829
 30
        0.000000
 11
      -47.500000
 21
       50.195625
 31
        0.000000
  0
LINE
  8
4
 10
      -47.500000
 20
       50.195625
 30
        0.000000
 11
      -43.500000
 21
       51.267423
 31
        0.000000
  0
LINE
  8
4
 10
      -47.500000
 20
       50.195625
 30
        0.000000
 11
      -43.500000
 21
       50.195626
 31
        0.000000
  0
LINE
  8
4
 10
       43.499970
 20
       51.267422
 30
        0.000000
 11
       47.499970
 21
       50.195625
 31
        0.000000
  0
LINE
  8
4
 10
       47.499970
 20
       50.195625
 30
        0.000000
 11
       43.499970
 21
       49.123829
 31
        0.000000
  0
LINE
  8
4
 10
       47.499970
 20
       50.195625
 30
        0.000000
 11
       43.499970
 21
       50.195625
 31
        0.000000
  0
TEXT
  8
10
 10
       -6.000015
 20
       52.195625
 30
        0.000000
 40
        6.000000
  1
９５
 50
        0.000000
 41
        1.000000
 51
        0.000000
  7
BIGFONT
  0
ENDBLK
  0
BLOCK
  8
0
  2
BLK0006
 70
    64
 10
        0.000000
 20
        0.000000
  0
TEXT
  8
10
 10
     -162.798645
 20
       58.322617
 30
        0.000000
 40
        6.000000
  1
４－ゴム足Ｍ３止
 50
        0.000000
 41
        1.000000
 51
        0.000000
  7
BIGFONT
  0
LINE
  8
10
 10
     -163.798645
 20
       57.322617
 30
        0.000000
 11
     -113.798645
 21
       57.322617
 31
        0.000000
  0
LINE
  8
10
 10
     -113.798645
 20
       57.322617
 30
        0.000000
 11
     -103.177559
 21
       84.661568
 31
        0.000000
  0
LINE
  8
10
 10
     -104.040398
 20
       80.705521
 30
        0.000000
 11
     -103.177559
 21
       84.661568
 31
        0.000000
  0
LINE
  8
10
 10
     -103.177559
 20
       84.661568
 30
        0.000000
 11
     -105.211746
 21
       81.160583
 31
        0.000000
  0
ENDBLK
  0
BLOCK
  8
0
  2
BLK0007
 70
    64
 10
        0.000000
 20
        0.000000
  0
LINE
  8
4
 62
  3
 10
     -163.095905
 20
      142.673192
 30
        0.000000
 11
     -133.239228
 21
      142.673192
 31
        0.000000
  0
LINE
  8
4
 62
  3
 10
     -133.239228
 20
      142.673192
 30
        0.000000
 11
     -133.239228
 21
      125.061543
 31
        0.000000
  0
LINE
  8
4
 62
  3
 10
     -133.239228
 20
      125.061543
 30
        0.000000
 11
     -163.095905
 21
      125.061543
 31
        0.000000
  0
LINE
  8
4
 62
  3
 10
     -163.095905
 20
      125.061543
 30
        0.000000
 11
     -163.095905
 21
      142.673192
 31
        0.000000
  0
ENDBLK
  0
ENDSEC
  0
SECTION
  2
ENTITIES
  0
TEXT
  8
10
 10
     -168.355414
 20
      169.005218
 30
        0.000000
 40
        4.000000
  1
ＩＶ－ＬＰ１１Ｄ
 50
        0.000000
 41
        1.000000
 51
        0.000000
  7
BIGFONT
  0
INSERT
  8
10
 62
  5
  2
BLK0001
 10
        0.000000
 20
        0.000000
  0
INSERT
  8
10
 62
  5
  2
BLK0002
 10
        0.000000
 20
        0.000000
  0
INSERT
  8
10
 62
  5
  2
BLK0003
 10
        0.000000
 20
        0.000000
  0
INSERT
  8
10
 62
  5
  2
BLK0004
 10
        0.000000
 20
        0.000000
  0
INSERT
  8
10
 62
  5
  2
BLK0005
 10
        0.000000
 20
        0.000000
  0
INSERT
  8
10
 62
  5
  2
BLK0006
 10
        0.000000
 20
        0.000000
  0
LINE
  8
0
 10
      195.895612
 20
       89.661569
 30
        0.000000
 11
      125.895612
 21
       89.661569
 31
        0.000000
  0
LINE
  8
0
 10
      125.895612
 20
       89.661569
 30
        0.000000
 11
      125.895612
 21
      143.161563
 31
        0.000000
  0
LINE
  8
0
 10
      194.895612
 20
       89.661569
 30
        0.000000
 11
      126.895612
 21
       89.661569
 31
        0.000000
  0
LINE
  8
0
 10
      195.895612
 20
       89.661569
 30
        0.000000
 11
      125.895612
 21
       89.661569
 31
        0.000000
  0
LINE
  8
0
 10
      195.895612
 20
       89.661569
 30
        0.000000
 11
      195.895612
 21
      143.161563
 31
        0.000000
  0
LINE
  8
0
 10
      194.395612
 20
      144.661563
 30
        0.000000
 11
      127.395612
 21
      144.661563
 31
        0.000000
  0
TEXT
  8
4
 62
  3
 10
       -2.760305
 20
       64.901012
 30
        0.000000
 40
        2.500000
  1
　
 50
        0.000000
 41
        1.000000
 51
        0.000000
  7
BIGFONT
  0
TEXT
  8
4
 62
  3
 10
       -2.507957
 20
       66.315368
 30
        0.000000
 40
        2.500000
  1
　
 50
        0.000000
 41
        1.000000
 51
        0.000000
  7
BIGFONT
  0
TEXT
  8
4
 62
  3
 10
       14.724698
 20
       55.158333
 30
        0.000000
 40
        2.500000
  1
　
 50
        0.000000
 41
        1.000000
 51
        0.000000
  7
BIGFONT
  0
TEXT
  8
4
 62
  3
 10
        1.370455
 20
      -61.692422
 30
        0.000000
 40
        4.000000
  1
　
 50
        0.000000
 41
        1.000000
 51
        0.000000
  7
BIGFONT
  0
TEXT
  8
4
 62
  3
 10
      103.051550
 20
       51.943126
 30
        0.000000
 40
        4.000000
  1
　
 50
        0.000000
 41
        1.000000
 51
        0.000000
  7
BIGFONT
  0
TEXT
  8
4
 62
  3
 10
       98.723993
 20
       51.612440
 30
        0.000000
 40
        4.000000
  1
　
 50
        0.000000
 41
        1.000000
 51
        0.000000
  7
BIGFONT
  0
TEXT
  8
4
 62
  3
 10
        0.770512
 20
       63.978193
 30
        0.000000
 40
        4.000000
  1
　
 50
        0.000000
 41
        1.000000
 51
        0.000000
  7
BIGFONT
  0
TEXT
  8
4
 62
  3
 10
        0.989605
 20
       64.806461
 30
        0.000000
 40
        4.000000
  1
　
 50
        0.000000
 41
        1.000000
 51
        0.000000
  7
BIGFONT
  0
TEXT
  8
4
 62
  3
 10
       -1.850374
 20
       54.108814
 30
        0.000000
 40
        4.000000
  1
　
 50
        0.000000
 41
        1.000000
 51
        0.000000
  7
BIGFONT
  0
TEXT
  8
4
 62
  3
 10
        5.498578
 20
      -72.413743
 30
        0.000000
 40
        4.000000
  1
　
 50
        0.000000
 41
        1.000000
 51
        0.000000
  7
BIGFONT
  0
TEXT
  8
4
 62
  3
 10
        2.424080
 20
       47.224011
 30
        0.000000
 40
        4.000000
  1
　
 50
        0.000000
 41
        1.000000
 51
        0.000000
  7
BIGFONT
  0
TEXT
  8
4
 62
  3
 10
        3.060359
 20
       55.720692
 30
        0.000000
 40
        4.000000
  1
　
 50
        0.000000
 41
        1.000000
 51
        0.000000
  7
BIGFONT
  0
TEXT
  8
4
 62
  3
 10
        5.175873
 20
       42.011736
 30
        0.000000
 40
        4.000000
  1
　
 50
        0.000000
 41
        1.000000
 51
        0.000000
  7
BIGFONT
  0
TEXT
  8
4
 62
  3
 10
        4.539594
 20
       33.515055
 30
        0.000000
 40
        4.000000
  1
　
 50
        0.000000
 41
        1.000000
 51
        0.000000
  7
BIGFONT
  0
LINE
  8
0
 10
      128.300600
 20
       84.661569
 30
        0.000000
 11
      135.490625
 21
       84.661569
 31
        0.000000
  0
LINE
  8
0
 10
      126.895612
 20
       89.661569
 30
        0.000000
 11
      127.305563
 21
       85.562065
 31
        0.000000
  0
ARC
  8
0
 10
      128.300600
 20
       85.661569
 30
        0.000000
 40
        1.000000
 50
      185.710598
 51
      270.000000
  0
ARC
  8
0
 10
      135.490625
 20
       85.661569
 30
        0.000000
 40
        1.000000
 50
      270.000000
 51
      354.289407
  0
LINE
  8
0
 10
      136.895612
 20
       89.661569
 30
        0.000000
 11
      136.485662
 21
       85.562065
 31
        0.000000
  0
LINE
  8
0
 10
      186.300600
 20
       84.661569
 30
        0.000000
 11
      193.490625
 21
       84.661569
 31
        0.000000
  0
ARC
  8
0
 10
      186.300600
 20
       85.661569
 30
        0.000000
 40
        1.000000
 50
      185.710598
 51
      270.000000
  0
LINE
  8
0
 10
      184.895612
 20
       89.661569
 30
        0.000000
 11
      185.305563
 21
       85.562065
 31
        0.000000
  0
LINE
  8
0
 10
      194.895612
 20
       89.661569
 30
        0.000000
 11
      194.485662
 21
       85.562065
 31
        0.000000
  0
ARC
  8
0
 10
      193.490625
 20
       85.661569
 30
        0.000000
 40
        1.000000
 50
      270.000000
 51
      354.289407
  0
TEXT
  8
4
 62
  3
 10
       15.139153
 20
      -22.367795
 30
        0.000000
 40
        4.500000
  1
　
 50
        0.000000
 41
        1.000000
 51
        0.000000
  7
BIGFONT
  0
TEXT
  8
4
 62
  3
 10
      123.305247
 20
       80.046511
 30
        0.000000
 40
        4.500000
  1
　
 50
        0.000000
 41
        1.000000
 51
        0.000000
  7
BIGFONT
  0
TEXT
  8
4
 62
  3
 10
     -111.319337
 20
       -8.601802
 30
        0.000000
 40
        4.500000
  1
　
 50
        0.000000
 41
        1.000000
 51
        0.000000
  7
BIGFONT
  0
LINE
  8
6
 10
      -75.000000
 20
        0.000000
 30
        0.000000
 11
       75.000000
 21
        0.000000
 31
        0.000000
  0
LINE
  8
0
 10
      -65.000000
 20
      -35.000005
 30
        0.000000
 11
       65.000000
 21
      -35.000005
 31
        0.000000
  0
LINE
  8
0
 10
      -65.000000
 20
       35.000005
 30
        0.000000
 11
       65.000000
 21
       35.000005
 31
        0.000000
  0
LINE
  8
0
 10
       65.000000
 20
      144.661563
 30
        0.000000
 11
      -65.000000
 21
      144.661563
 31
        0.000000
  0
LINE
  8
0
 10
      -64.000000
 20
       89.661569
 30
        0.000000
 11
       64.000000
 21
       89.661569
 31
        0.000000
  0
LINE
  8
0
 10
      -67.500000
 20
      -27.500000
 30
        0.000000
 11
      -67.500000
 21
        7.500000
 31
        0.000000
  0
LINE
  8
0
 10
      -65.000000
 20
       35.000005
 30
        0.000000
 11
      -65.000000
 21
      -35.000005
 31
        0.000000
  0
LINE
  8
0
 10
      -67.000000
 20
      -28.000000
 30
        0.000000
 11
      -65.000000
 21
      -28.000000
 31
        0.000000
  0
CIRCLE
  8
0
 10
      -47.500000
 20
      -29.000005
 30
        0.000000
 40
        5.000000
  0
CIRCLE
  8
0
 10
      -47.500000
 20
      -29.000005
 30
        0.000000
 40
        2.500000
  0
LINE
  8
0
 10
      -67.000000
 20
        8.000000
 30
        0.000000
 11
      -65.000000
 21
        8.000000
 31
        0.000000
  0
CIRCLE
  8
0
 10
      -47.500000
 20
       29.000005
 30
        0.000000
 40
        2.500000
  0
CIRCLE
  8
0
 10
      -47.500000
 20
       29.000005
 30
        0.000000
 40
        5.000000
  0
LINE
  8
0
 10
      -67.500000
 20
      115.661576
 30
        0.000000
 11
      -67.500000
 21
       93.661576
 31
        0.000000
  0
LINE
  8
0
 10
      -65.000000
 20
      144.661563
 30
        0.000000
 11
      -65.000000
 21
       90.661569
 31
        0.000000
  0
LINE
  8
0
 10
      -65.000000
 20
       90.661569
 30
        0.000000
 11
      -64.000000
 21
       89.661569
 31
        0.000000
  0
LINE
  8
0
 10
      -67.000000
 20
       93.161576
 30
        0.000000
 11
      -65.000000
 21
       93.161576
 31
        0.000000
  0
LINE
  8
0
 10
      -51.095012
 20
       84.661569
 30
        0.000000
 11
      -43.904988
 21
       84.661569
 31
        0.000000
  0
LINE
  8
0
 10
      -52.500000
 20
       89.661569
 30
        0.000000
 11
      -52.090050
 21
       85.562065
 31
        0.000000
  0
ARC
  8
0
 10
      -51.095012
 20
       85.661569
 30
        0.000000
 40
        1.000000
 50
      185.710598
 51
      270.000000
  0
LINE
  8
0
 10
      -42.500000
 20
       89.661569
 30
        0.000000
 11
      -42.909950
 21
       85.562065
 31
        0.000000
  0
ARC
  8
0
 10
      -43.904988
 20
       85.661569
 30
        0.000000
 40
        1.000000
 50
      270.000000
 51
      354.289407
  0
LINE
  8
0
 10
      -67.000000
 20
      116.161576
 30
        0.000000
 11
      -65.000000
 21
      116.161576
 31
        0.000000
  0
LINE
  8
0
 10
      -73.350010
 20
      132.361574
 30
        0.000000
 11
      -73.350010
 21
      126.961554
 31
        0.000000
  0
LINE
  8
0
 10
      -73.350010
 20
      132.361574
 30
        0.000000
 11
      -65.000000
 21
      132.361574
 31
        0.000000
  0
LINE
  8
0
 10
      -73.350010
 20
      132.361574
 30
        0.000000
 11
      -72.157030
 21
      133.361574
 31
        0.000000
  0
LINE
  8
0
 10
      -72.157030
 20
      133.361574
 30
        0.000000
 11
      -71.157020
 21
      132.361574
 31
        0.000000
  0
LINE
  8
0
 10
      -69.492490
 20
      127.861584
 30
        0.000000
 11
      -69.492490
 21
      131.461534
 31
        0.000000
  0
LINE
  8
0
 10
      -69.492490
 20
      127.861584
 30
        0.000000
 11
      -65.000000
 21
      127.861584
 31
        0.000000
  0
LINE
  8
0
 10
      -69.492490
 20
      131.461534
 30
        0.000000
 11
      -65.000000
 21
      131.461534
 31
        0.000000
  0
LINE
  8
6
 10
        0.000000
 20
      -45.000005
 30
        0.000000
 11
        0.000000
 21
       45.000005
 31
        0.000000
  0
LINE
  8
0
 10
       65.000000
 20
       35.000005
 30
        0.000000
 11
       65.000000
 21
      -35.000005
 31
        0.000000
  0
CIRCLE
  8
0
 10
       47.499970
 20
      -29.000005
 30
        0.000000
 40
        5.000000
  0
CIRCLE
  8
0
 10
       47.499970
 20
      -29.000005
 30
        0.000000
 40
        2.500000
  0
LINE
  8
0
 10
       67.000010
 20
       29.500005
 30
        0.000000
 11
       67.000010
 21
        9.499985
 31
        0.000000
  0
CIRCLE
  8
0
 10
       47.499970
 20
       29.000005
 30
        0.000000
 40
        5.000000
  0
CIRCLE
  8
0
 10
       47.499970
 20
       29.000005
 30
        0.000000
 40
        2.500000
  0
LINE
  8
0
 10
       66.500010
 20
        8.999985
 30
        0.000000
 11
       65.000010
 21
        8.999985
 31
        0.000000
  0
LINE
  8
0
 10
       69.897347
 20
       23.970351
 30
        0.000000
 11
       67.000010
 21
       17.490721
 31
        0.000000
  0
ARC
  8
0
 10
       63.491040
 20
       20.690973
 30
        0.000000
 40
        7.394595
 50
       30.347776
 51
       61.671125
  0
LINE
  8
0
 10
       65.000000
 20
       30.000005
 30
        0.000000
 11
       66.500010
 21
       30.000005
 31
        0.000000
  0
LINE
  8
0
 10
       70.000026
 20
      110.911525
 30
        0.000000
 11
       70.000026
 21
      101.411525
 31
        0.000000
  0
LINE
  8
0
 10
       67.000010
 20
      113.161525
 30
        0.000000
 11
       67.000010
 21
       99.161525
 31
        0.000000
  0
LINE
  8
0
 10
       65.000000
 20
      144.661563
 30
        0.000000
 11
       65.000000
 21
       90.661569
 31
        0.000000
  0
ARC
  8
0
 10
       43.904988
 20
       85.661569
 30
        0.000000
 40
        1.000000
 50
      185.710598
 51
      270.000000
  0
LINE
  8
0
 10
       42.500000
 20
       89.661569
 30
        0.000000
 11
       42.909950
 21
       85.562065
 31
        0.000000
  0
LINE
  8
0
 10
       52.500000
 20
       89.661569
 30
        0.000000
 11
       52.090050
 21
       85.562065
 31
        0.000000
  0
LINE
  8
0
 10
       43.904988
 20
       84.661569
 30
        0.000000
 11
       51.095012
 21
       84.661569
 31
        0.000000
  0
ARC
  8
0
 10
       51.095012
 20
       85.661569
 30
        0.000000
 40
        1.000000
 50
      270.000000
 51
      354.289407
  0
LINE
  8
0
 10
       65.000000
 20
       90.661569
 30
        0.000000
 11
       64.000000
 21
       89.661569
 31
        0.000000
  0
LINE
  8
0
 10
       65.000000
 20
       98.661525
 30
        0.000000
 11
       66.500010
 21
       98.661525
 31
        0.000000
  0
LINE
  8
0
 10
       70.000026
 20
      101.411525
 30
        0.000000
 11
       67.000010
 21
      101.411525
 31
        0.000000
  0
LINE
  8
0
 10
       65.000000
 20
      113.661525
 30
        0.000000
 11
       66.500010
 21
      113.661525
 31
        0.000000
  0
LINE
  8
0
 10
       70.000026
 20
      110.911525
 30
        0.000000
 11
       67.000010
 21
      110.911525
 31
        0.000000
  0
LINE
  8
0
 10
      152.395622
 20
      113.661525
 30
        0.000000
 11
      152.395622
 21
       98.661532
 31
        0.000000
  0
LINE
  8
0
 10
      131.395602
 20
       98.661532
 30
        0.000000
 11
      131.395602
 21
      113.661525
 31
        0.000000
  0
LINE
  8
0
 10
      149.395612
 20
      110.911529
 30
        0.000000
 11
      149.395612
 21
      101.411528
 31
        0.000000
  0
LINE
  8
0
 10
      134.395612
 20
      101.411528
 30
        0.000000
 11
      134.395612
 21
      110.911529
 31
        0.000000
  0
LINE
  8
0
 10
      152.395622
 20
       98.661532
 30
        0.000000
 11
      131.395602
 21
       98.661532
 31
        0.000000
  0
LINE
  8
0
 10
      149.395612
 20
      101.411528
 30
        0.000000
 11
      134.395612
 21
      101.411528
 31
        0.000000
  0
LINE
  8
0
 10
      134.395612
 20
      110.911529
 30
        0.000000
 11
      149.395612
 21
      110.911529
 31
        0.000000
  0
LINE
  8
0
 10
      131.395602
 20
      113.661525
 30
        0.000000
 11
      152.395622
 21
      113.661525
 31
        0.000000
  0
CIRCLE
  8
0
 10
      147.395602
 20
      106.111534
 30
        0.000000
 40
        1.000000
  0
CIRCLE
  8
0
 10
      162.395622
 20
      106.161529
 30
        0.000000
 40
        3.500000
  0
CIRCLE
  8
0
 10
      162.395622
 20
      106.161529
 30
        0.000000
 40
        1.500000
  0
LINE
  8
0
 10
       65.500000
 20
       -4.499995
 30
        0.000000
 11
       65.500000
 21
        2.500005
 31
        0.000000
  0
LINE
  8
0
 10
       65.500000
 20
       -4.499995
 30
        0.000000
 11
       65.000000
 21
       -4.499995
 31
        0.000000
  0
LINE
  8
0
 10
       65.000000
 20
        2.500005
 30
        0.000000
 11
       65.500000
 21
        2.500005
 31
        0.000000
  0
LINE
  8
0
 10
       65.500000
 20
        2.500005
 30
        0.000000
 11
       66.500000
 21
        0.500005
 31
        0.000000
  0
LINE
  8
0
 10
       65.500000
 20
       -4.499995
 30
        0.000000
 11
       66.500000
 21
       -2.499995
 31
        0.000000
  0
LINE
  8
0
 10
       66.500000
 20
        0.500005
 30
        0.000000
 11
       66.500000
 21
       -2.499995
 31
        0.000000
  0
ARC
  8
0
 10
       66.500000
 20
       -0.999995
 30
        0.000000
 40
        1.000000
 50
      270.000000
 51
      450.000000
  0
LINE
  8
0
 10
      -98.177562
 20
       89.661569
 30
        0.000000
 11
      -98.587512
 21
       85.562065
 31
        0.000000
  0
LINE
  8
0
 10
     -108.177562
 20
       89.661569
 30
        0.000000
 11
     -107.767611
 21
       85.562065
 31
        0.000000
  0
LINE
  8
0
 10
     -156.177562
 20
       89.661569
 30
        0.000000
 11
     -156.587512
 21
       85.562065
 31
        0.000000
  0
LINE
  8
0
 10
     -166.177562
 20
       89.661569
 30
        0.000000
 11
     -165.767611
 21
       85.562065
 31
        0.000000
  0
LINE
  8
0
 10
     -164.772574
 20
       84.661569
 30
        0.000000
 11
     -157.582549
 21
       84.661569
 31
        0.000000
  0
ARC
  8
0
 10
     -164.772574
 20
       85.661569
 30
        0.000000
 40
        1.000000
 50
      185.710598
 51
      270.000000
  0
ARC
  8
0
 10
     -157.582549
 20
       85.661569
 30
        0.000000
 40
        1.000000
 50
      270.000000
 51
      354.289407
  0
LINE
  8
0
 10
     -106.772574
 20
       84.661569
 30
        0.000000
 11
      -99.582549
 21
       84.661569
 31
        0.000000
  0
ARC
  8
0
 10
     -106.772574
 20
       85.661569
 30
        0.000000
 40
        1.000000
 50
      185.710598
 51
      270.000000
  0
ARC
  8
0
 10
      -99.582549
 20
       85.661569
 30
        0.000000
 40
        1.000000
 50
      270.000000
 51
      354.289407
  0
LINE
  8
0
 10
     -165.677562
 20
      144.661563
 30
        0.000000
 11
      -98.677562
 21
      144.661563
 31
        0.000000
  0
LINE
  8
0
 10
     -167.177562
 20
       89.661569
 30
        0.000000
 11
      -97.177562
 21
       89.661569
 31
        0.000000
  0
LINE
  8
0
 10
     -106.677567
 20
      131.411564
 30
        0.000000
 11
     -106.677567
 21
      127.911574
 31
        0.000000
  0
LINE
  8
0
 10
     -109.427567
 20
      132.361534
 30
        0.000000
 11
     -109.427567
 21
      126.961554
 31
        0.000000
  0
LINE
  8
0
 10
     -114.927557
 20
      132.361534
 30
        0.000000
 11
     -114.927557
 21
      126.961554
 31
        0.000000
  0
LINE
  8
0
 10
     -117.677557
 20
      131.411564
 30
        0.000000
 11
     -117.677557
 21
      127.911574
 31
        0.000000
  0
LINE
  8
0
 10
     -167.177562
 20
      143.161563
 30
        0.000000
 11
     -167.177562
 21
       89.661569
 31
        0.000000
  0
LINE
  8
0
 10
     -117.677557
 20
      127.911574
 30
        0.000000
 11
     -114.927557
 21
      127.911574
 31
        0.000000
  0
LINE
  8
0
 10
     -114.927557
 20
      126.961554
 30
        0.000000
 11
     -109.427567
 21
      126.961554
 31
        0.000000
  0
LINE
  8
0
 10
     -111.552557
 20
      127.961554
 30
        0.000000
 11
     -110.552557
 21
      127.961554
 31
        0.000000
  0
LINE
  8
0
 10
     -111.802547
 20
      126.961554
 30
        0.000000
 11
     -110.302567
 21
      126.961554
 31
        0.000000
  0
LINE
  8
0
 10
     -110.552557
 20
      127.961554
 30
        0.000000
 11
     -110.302567
 21
      126.961554
 31
        0.000000
  0
LINE
  8
0
 10
     -111.552557
 20
      127.961554
 30
        0.000000
 11
     -111.802547
 21
      126.961554
 31
        0.000000
  0
LINE
  8
0
 10
     -112.802547
 20
      127.961554
 30
        0.000000
 11
     -112.552557
 21
      126.961554
 31
        0.000000
  0
LINE
  8
0
 10
     -113.802547
 20
      127.961554
 30
        0.000000
 11
     -114.052537
 21
      126.961554
 31
        0.000000
  0
LINE
  8
0
 10
     -114.052537
 20
      126.961554
 30
        0.000000
 11
     -112.552557
 21
      126.961554
 31
        0.000000
  0
LINE
  8
0
 10
     -113.802547
 20
      127.961554
 30
        0.000000
 11
     -112.802547
 21
      127.961554
 31
        0.000000
  0
LINE
  8
0
 10
     -109.427567
 20
      127.911574
 30
        0.000000
 11
     -106.677567
 21
      127.911574
 31
        0.000000
  0
LINE
  8
0
 10
     -117.677557
 20
      131.411564
 30
        0.000000
 11
     -114.927557
 21
      131.411564
 31
        0.000000
  0
TEXT
  8
7
 10
     -119.968016
 20
      135.379979
 30
        0.000000
 40
        2.250000
  1
ＬＡＭＰ　ＯＵＴ
 50
        0.000000
 41
        1.000000
 51
        0.000000
  7
BIGFONT
  0
LINE
  8
0
 10
     -114.927557
 20
      132.361534
 30
        0.000000
 11
     -109.427567
 21
      132.361534
 31
        0.000000
  0
LINE
  8
0
 10
     -110.177557
 20
      133.361534
 30
        0.000000
 11
     -110.177557
 21
      132.361534
 31
        0.000000
  0
LINE
  8
2
 10
     -111.552557
 20
      130.861554
 30
        0.000000
 11
     -110.552557
 21
      130.861554
 31
        0.000000
  0
LINE
  8
2
 10
     -110.552557
 20
      130.861554
 30
        0.000000
 11
     -110.052547
 21
      131.361524
 31
        0.000000
  0
LINE
  8
2
 10
     -111.552557
 20
      130.361524
 30
        0.000000
 11
     -110.552557
 21
      130.361524
 31
        0.000000
  0
LINE
  8
2
 10
     -110.552557
 20
      130.361524
 30
        0.000000
 11
     -110.052547
 21
      129.861544
 31
        0.000000
  0
LINE
  8
2
 10
     -110.552557
 20
      130.861554
 30
        0.000000
 11
     -110.552557
 21
      130.361524
 31
        0.000000
  0
LINE
  8
2
 10
     -110.052547
 20
      131.361524
 30
        0.000000
 11
     -110.052547
 21
      129.861544
 31
        0.000000
  0
LINE
  8
2
 10
     -111.552557
 20
      130.861554
 30
        0.000000
 11
     -111.552557
 21
      130.361524
 31
        0.000000
  0
LINE
  8
2
 10
     -112.802547
 20
      130.861554
 30
        0.000000
 11
     -112.302547
 21
      131.361524
 31
        0.000000
  0
LINE
  8
2
 10
     -112.802547
 20
      130.361524
 30
        0.000000
 11
     -112.302547
 21
      129.861544
 31
        0.000000
  0
LINE
  8
2
 10
     -112.052557
 20
      131.361524
 30
        0.000000
 11
     -112.052557
 21
      129.861544
 31
        0.000000
  0
LINE
  8
2
 10
     -112.302547
 20
      131.361524
 30
        0.000000
 11
     -112.302547
 21
      129.861544
 31
        0.000000
  0
LINE
  8
2
 10
     -112.802547
 20
      130.861554
 30
        0.000000
 11
     -112.802547
 21
      130.361524
 31
        0.000000
  0
LINE
  8
2
 10
     -113.802547
 20
      130.861554
 30
        0.000000
 11
     -114.302557
 21
      131.361524
 31
        0.000000
  0
LINE
  8
2
 10
     -113.802547
 20
      130.361524
 30
        0.000000
 11
     -114.302557
 21
      129.861544
 31
        0.000000
  0
LINE
  8
2
 10
     -113.802547
 20
      130.861554
 30
        0.000000
 11
     -113.802547
 21
      130.361524
 31
        0.000000
  0
LINE
  8
0
 10
     -114.177567
 20
      133.361534
 30
        0.000000
 11
     -114.177567
 21
      132.361534
 31
        0.000000
  0
LINE
  8
2
 10
     -114.302557
 20
      131.361524
 30
        0.000000
 11
     -114.302557
 21
      129.861544
 31
        0.000000
  0
LINE
  8
2
 10
     -114.302557
 20
      131.361524
 30
        0.000000
 11
     -112.302547
 21
      131.361524
 31
        0.000000
  0
LINE
  8
2
 10
     -114.302557
 20
      129.861544
 30
        0.000000
 11
     -112.302547
 21
      129.861544
 31
        0.000000
  0
LINE
  8
2
 10
     -113.802547
 20
      130.861554
 30
        0.000000
 11
     -112.802547
 21
      130.861554
 31
        0.000000
  0
LINE
  8
2
 10
     -113.802547
 20
      130.361524
 30
        0.000000
 11
     -112.802547
 21
      130.361524
 31
        0.000000
  0
LINE
  8
2
 10
     -112.052557
 20
      131.361524
 30
        0.000000
 11
     -110.052547
 21
      131.361524
 31
        0.000000
  0
LINE
  8
2
 10
     -111.552557
 20
      130.861554
 30
        0.000000
 11
     -112.052557
 21
      131.361524
 31
        0.000000
  0
LINE
  8
2
 10
     -112.052557
 20
      129.861544
 30
        0.000000
 11
     -110.052547
 21
      129.861544
 31
        0.000000
  0
LINE
  8
2
 10
     -111.552557
 20
      130.361524
 30
        0.000000
 11
     -112.052557
 21
      129.861544
 31
        0.000000
  0
LINE
  8
0
 10
     -114.177567
 20
      133.361534
 30
        0.000000
 11
     -110.177557
 21
      133.361534
 31
        0.000000
  0
LINE
  8
0
 10
     -109.427567
 20
      131.411564
 30
        0.000000
 11
     -106.677567
 21
      131.411564
 31
        0.000000
  0
LINE
  8
0
 10
      -97.177562
 20
      143.161563
 30
        0.000000
 11
      -97.177562
 21
       89.661569
 31
        0.000000
  0
LINE
  8
0
 10
      -73.350010
 20
       16.000005
 30
        0.000000
 11
      -65.000000
 21
       16.000005
 31
        0.000000
  0
LINE
  8
0
 10
      -69.492490
 20
       16.000005
 30
        0.000000
 11
      -65.000000
 21
       13.500005
 31
        0.000000
  0
LINE
  8
0
 10
      -65.000000
 20
       24.000005
 30
        0.000000
 11
      -73.350010
 21
       24.000005
 31
        0.000000
  0
LINE
  8
0
 10
      -69.175005
 20
       24.000005
 30
        0.000000
 11
      -65.000000
 21
       26.500005
 31
        0.000000
  0
TEXT
  8
7
 10
      156.292207
 20
      111.357325
 30
        0.000000
 40
        2.250000
  1
ＰＯＷＥＲ
 50
        0.000000
 41
        1.000000
 51
        0.000000
  7
BIGFONT
  0
TEXT
  8
7
 10
      160.588431
 20
      138.131924
 30
        0.000000
 40
        2.250000
  1
Ｌｉｇｈｔ　Ｃｏｎｔｒｏｌ
 50
        0.000000
 41
        1.000000
 51
        0.000000
  7
BIGFONT
  0
CIRCLE
  8
0
 10
      171.895619
 20
      128.811556
 30
        0.000000
 40
        5.500000
  0
LINE
  8
0
 10
      168.623479
 20
      125.822236
 30
        0.000000
 11
      168.906299
 21
      125.539386
 31
        0.000000
  0
LINE
  8
0
 10
      168.694169
 20
      125.892926
 30
        0.000000
 11
      168.976989
 21
      125.610076
 31
        0.000000
  0
LINE
  8
0
 10
      168.764859
 20
      125.963626
 30
        0.000000
 11
      169.047709
 21
      125.680796
 31
        0.000000
  0
LINE
  8
0
 10
      168.835579
 20
      126.034336
 30
        0.000000
 11
      169.118409
 21
      125.751496
 31
        0.000000
  0
LINE
  8
0
 10
      168.906279
 20
      126.105036
 30
        0.000000
 11
      169.189119
 21
      125.822206
 31
        0.000000
  0
LINE
  8
0
 10
      167.867699
 20
      125.066456
 30
        0.000000
 11
      168.150519
 21
      124.783606
 31
        0.000000
  0
LINE
  8
0
 10
      167.916419
 20
      125.115176
 30
        0.000000
 11
      168.199269
 21
      124.832356
 31
        0.000000
  0
LINE
  8
0
 10
      167.987139
 20
      125.185896
 30
        0.000000
 11
      168.269959
 21
      124.903046
 31
        0.000000
  0
LINE
  8
0
 10
      168.057829
 20
      125.256586
 30
        0.000000
 11
      168.340679
 21
      124.973766
 31
        0.000000
  0
LINE
  8
0
 10
      168.128549
 20
      125.327306
 30
        0.000000
 11
      168.411369
 21
      125.044456
 31
        0.000000
  0
LINE
  8
0
 10
      168.199239
 20
      125.397996
 30
        0.000000
 11
      168.482089
 21
      125.115146
 31
        0.000000
  0
LINE
  8
0
 10
      168.269939
 20
      125.468696
 30
        0.000000
 11
      168.552779
 21
      125.185866
 31
        0.000000
  0
LINE
  8
0
 10
      167.796761
 20
      124.429848
 30
        0.000000
 11
      169.212155
 21
      125.845242
 31
        0.000000
  0
LINE
  8
0
 10
      168.340649
 20
      125.539416
 30
        0.000000
 11
      168.623479
 21
      125.256566
 31
        0.000000
  0
LINE
  8
0
 10
      168.411349
 20
      125.610106
 30
        0.000000
 11
      168.694199
 21
      125.327286
 31
        0.000000
  0
LINE
  8
0
 10
      168.482069
 20
      125.680826
 30
        0.000000
 11
      168.764889
 21
      125.397976
 31
        0.000000
  0
LINE
  8
0
 10
      168.552759
 20
      125.751516
 30
        0.000000
 11
      168.835609
 21
      125.468666
 31
        0.000000
  0
LINE
  8
0
 10
      167.513926
 20
      124.712682
 30
        0.000000
 11
      168.929319
 21
      126.128076
 31
        0.000000
  0
CIRCLE
  8
0
 10
      171.895619
 20
      128.811556
 30
        0.000000
 40
        6.000000
  0
LINE
  8
0
 10
      167.584899
 20
      124.783656
 30
        0.000000
 11
      167.867719
 21
      124.500806
 31
        0.000000
  0
LINE
  8
0
 10
      167.655589
 20
      124.854346
 30
        0.000000
 11
      167.938439
 21
      124.571496
 31
        0.000000
  0
LINE
  8
0
 10
      167.726289
 20
      124.925046
 30
        0.000000
 11
      168.009129
 21
      124.642216
 31
        0.000000
  0
LINE
  8
0
 10
      167.796999
 20
      124.995766
 30
        0.000000
 11
      168.079829
 21
      124.712916
 31
        0.000000
  0
CIRCLE
  8
0
 10
      171.895619
 20
      128.811556
 30
        0.000000
 40
        4.000000
  0
LINE
  8
7
 10
      174.615693
 20
      133.883656
 30
        0.000000
 11
      175.158048
 21
      135.009867
 31
        0.000000
  0
LINE
  8
7
 10
      169.626030
 20
      134.100598
 30
        0.000000
 11
      169.083675
 21
      135.226809
 31
        0.000000
  0
LINE
  8
7
 10
      172.145619
 20
      133.811556
 30
        0.000000
 11
      172.145619
 21
      136.311556
 31
        0.000000
  0
LINE
  8
7
 10
      169.175545
 20
      133.883656
 30
        0.000000
 11
      168.633191
 21
      135.009867
 31
        0.000000
  0
LINE
  8
7
 10
      171.645619
 20
      133.811556
 30
        0.000000
 11
      171.645619
 21
      136.311556
 31
        0.000000
  0
LINE
  8
7
 10
      174.165208
 20
      134.100598
 30
        0.000000
 11
      174.707563
 21
      135.226809
 31
        0.000000
  0
LINE
  8
7
 10
      165.126754
 20
      127.010177
 30
        0.000000
 11
      165.015494
 21
      127.497641
 31
        0.000000
  0
LINE
  8
7
 10
      166.345414
 20
      127.288328
 30
        0.000000
 11
      166.234153
 21
      127.775792
 31
        0.000000
  0
LINE
  8
7
 10
      168.142334
 20
      125.498649
 30
        0.000000
 11
      167.830589
 21
      125.889565
 31
        0.000000
  0
LINE
  8
7
 10
      166.187755
 20
      123.939924
 30
        0.000000
 11
      165.876011
 21
      124.330840
 31
        0.000000
  0
LINE
  8
7
 10
      166.234153
 20
      127.775792
 30
        0.000000
 11
      165.015494
 21
      127.497641
 31
        0.000000
  0
LINE
  8
7
 10
      167.830589
 20
      125.889565
 30
        0.000000
 11
      165.876011
 21
      124.330840
 31
        0.000000
  0
LINE
  8
7
 10
      168.142334
 20
      125.498649
 30
        0.000000
 11
      166.187755
 21
      123.939924
 31
        0.000000
  0
LINE
  8
7
 10
      166.345414
 20
      127.288328
 30
        0.000000
 11
      165.126754
 21
      127.010177
 31
        0.000000
  0
LINE
  8
7
 10
      177.915228
 20
      124.330840
 30
        0.000000
 11
      177.603483
 21
      123.939924
 31
        0.000000
  0
LINE
  8
7
 10
      175.960649
 20
      125.889565
 30
        0.000000
 11
      175.648904
 21
      125.498649
 31
        0.000000
  0
LINE
  8
7
 10
      178.775745
 20
      127.497641
 30
        0.000000
 11
      178.664484
 21
      127.010177
 31
        0.000000
  0
LINE
  8
7
 10
      177.557085
 20
      127.775792
 30
        0.000000
 11
      177.445824
 21
      127.288328
 31
        0.000000
  0
LINE
  8
7
 10
      175.648904
 20
      125.498649
 30
        0.000000
 11
      177.603483
 21
      123.939924
 31
        0.000000
  0
LINE
  8
7
 10
      177.445824
 20
      127.288328
 30
        0.000000
 11
      178.664484
 21
      127.010177
 31
        0.000000
  0
LINE
  8
7
 10
      177.557085
 20
      127.775792
 30
        0.000000
 11
      178.775745
 21
      127.497641
 31
        0.000000
  0
LINE
  8
7
 10
      175.960649
 20
      125.889565
 30
        0.000000
 11
      177.915228
 21
      124.330840
 31
        0.000000
  0
LINE
  8
7
 10
      169.175545
 20
      133.883656
 30
        0.000000
 11
      169.626030
 21
      134.100598
 31
        0.000000
  0
LINE
  8
7
 10
      167.244216
 20
      132.201164
 30
        0.000000
 11
      167.555961
 21
      132.592080
 31
        0.000000
  0
LINE
  8
7
 10
      166.266926
 20
      132.980526
 30
        0.000000
 11
      166.578671
 21
      133.371442
 31
        0.000000
  0
LINE
  8
7
 10
      166.234153
 20
      129.847319
 30
        0.000000
 11
      166.345414
 21
      130.334783
 31
        0.000000
  0
LINE
  8
7
 10
      165.015494
 20
      130.125470
 30
        0.000000
 11
      165.126754
 21
      130.612934
 31
        0.000000
  0
LINE
  8
7
 10
      167.555961
 20
      132.592080
 30
        0.000000
 11
      166.578671
 21
      133.371442
 31
        0.000000
  0
LINE
  8
7
 10
      166.345414
 20
      130.334783
 30
        0.000000
 11
      165.126754
 21
      130.612934
 31
        0.000000
  0
LINE
  8
7
 10
      166.234153
 20
      129.847319
 30
        0.000000
 11
      165.015494
 21
      130.125470
 31
        0.000000
  0
LINE
  8
7
 10
      167.244216
 20
      132.201164
 30
        0.000000
 11
      166.266926
 21
      132.980526
 31
        0.000000
  0
LINE
  8
7
 10
      178.664484
 20
      130.612934
 30
        0.000000
 11
      178.775745
 21
      130.125470
 31
        0.000000
  0
LINE
  8
7
 10
      177.445824
 20
      130.334783
 30
        0.000000
 11
      177.557085
 21
      129.847319
 31
        0.000000
  0
LINE
  8
7
 10
      177.212567
 20
      133.371442
 30
        0.000000
 11
      177.524312
 21
      132.980526
 31
        0.000000
  0
LINE
  8
7
 10
      176.235278
 20
      132.592080
 30
        0.000000
 11
      176.547023
 21
      132.201164
 31
        0.000000
  0
LINE
  8
7
 10
      174.165208
 20
      134.100598
 30
        0.000000
 11
      174.615693
 21
      133.883656
 31
        0.000000
  0
LINE
  8
7
 10
      177.557085
 20
      129.847319
 30
        0.000000
 11
      178.775745
 21
      130.125470
 31
        0.000000
  0
LINE
  8
7
 10
      176.547023
 20
      132.201164
 30
        0.000000
 11
      177.524312
 21
      132.980526
 31
        0.000000
  0
LINE
  8
7
 10
      171.645619
 20
      133.811556
 30
        0.000000
 11
      172.145619
 21
      133.811556
 31
        0.000000
  0
LINE
  8
7
 10
      176.235278
 20
      132.592080
 30
        0.000000
 11
      177.212567
 21
      133.371442
 31
        0.000000
  0
LINE
  8
7
 10
      177.445824
 20
      130.334783
 30
        0.000000
 11
      178.664484
 21
      130.612934
 31
        0.000000
  0
LINE
  8
7
 10
      168.633191
 20
      135.009867
 30
        0.000000
 11
      169.083675
 21
      135.226809
 31
        0.000000
  0
LINE
  8
7
 10
      174.707563
 20
      135.226809
 30
        0.000000
 11
      175.158048
 21
      135.009867
 31
        0.000000
  0
LINE
  8
7
 10
      171.645619
 20
      136.311556
 30
        0.000000
 11
      172.145619
 21
      136.311556
 31
        0.000000
  0
TEXT
  8
7
 10
      129.959881
 20
      137.794640
 30
        0.000000
 40
        2.000000
  1
Ｖｏｌｔａｇｅ　Ｃｏｎｔｒｏｌ
 50
        0.000000
 41
        1.000000
 51
        0.000000
  7
BIGFONT
  0
TEXT
  8
4
 62
  3
 10
     -162.701434
 20
      139.949109
 30
        0.000000
 40
        1.500000
  1
ＭＯＤＥＬ　　　ＩＷＤＶ－１０Ｓ－Ｖ
 50
        0.000000
 41
        1.000000
 51
        0.000000
  7
BIGFONT
  0
TEXT
  8
4
 62
  3
 10
     -162.701434
 20
      136.408696
 30
        0.000000
 40
        1.500000
  1
ＲＡＴＩＮＧ　　１００－２４０ＶＡＣ
 50
        0.000000
 41
        1.000000
 51
        0.000000
  7
BIGFONT
  0
TEXT
  8
4
 62
  3
 10
     -152.621060
 20
      129.611869
 30
        0.000000
 40
        1.500000
  1
０．３／０．１５［Ａ］
 50
        0.000000
 41
        1.000000
 51
        0.000000
  7
BIGFONT
  0
TEXT
  8
4
 62
  3
 10
     -152.621060
 20
      133.128169
 30
        0.000000
 40
        1.500000
  1
５０／６０［Ｈｚ］
 50
        0.000000
 41
        1.000000
 51
        0.000000
  7
BIGFONT
  0
TEXT
  8
4
 62
  3
 10
     -158.521564
 20
      126.051781
 30
        0.000000
 40
        1.500000
  1
（Ｉｎｐｕｔ　１００／２４０ＶＡＣ）
 50
        0.000000
 41
        1.000000
 51
        0.000000
  7
BIGFONT
  0
TEXT
  8
7
 10
      137.258233
 20
      131.463438
 30
        0.000000
 40
        2.000000
  1
Ｐｏｗｅｒ　Ｓｕｐｐｌｙ
 50
        0.000000
 41
        1.000000
 51
        0.000000
  7
BIGFONT
  0
TEXT
  8
7
 10
      160.585720
 20
      120.497688
 30
        0.000000
 40
        2.250000
  1
ＭＩＮ
 50
        0.000000
 41
        1.000000
 51
        0.000000
  7
BIGFONT
  0
TEXT
  8
7
 10
      178.053303
 20
      120.497688
 30
        0.000000
 40
        2.250000
  1
ＭＡＸ
 50
        0.000000
 41
        1.000000
 51
        0.000000
  7
BIGFONT
  0
ARC
  8
0
 10
     -165.677562
 20
      143.161563
 30
        0.000000
 40
        1.500000
 50
       90.000000
 51
      180.000005
  0
ARC
  8
0
 10
      -98.677562
 20
      143.161563
 30
        0.000000
 40
        1.500000
 50
        0.000000
 51
       90.000000
  0
LINE
  8
0
 10
     -166.177562
 20
      143.161563
 30
        0.000000
 11
     -166.177562
 21
       89.661569
 31
        0.000000
  0
ARC
  8
0
 10
     -165.677562
 20
      143.161563
 30
        0.000000
 40
        0.500000
 50
       90.000000
 51
      180.000005
  0
LINE
  8
0
 10
     -165.677562
 20
      143.661563
 30
        0.000000
 11
      -98.677562
 21
      143.661563
 31
        0.000000
  0
ARC
  8
0
 10
      -98.677562
 20
      143.161563
 30
        0.000000
 40
        0.500000
 50
        0.000000
 51
       90.000000
  0
LINE
  8
0
 10
      -98.177562
 20
      143.161563
 30
        0.000000
 11
      -98.177562
 21
       89.661569
 31
        0.000000
  0
LINE
  8
0
 10
      -65.000000
 20
       34.000005
 30
        0.000000
 11
       65.000000
 21
       34.000005
 31
        0.000000
  0
LINE
  8
0
 10
      -65.000000
 20
      -34.000005
 30
        0.000000
 11
       65.000000
 21
      -34.000005
 31
        0.000000
  0
ARC
  8
0
 10
      127.395612
 20
      143.161563
 30
        0.000000
 40
        1.500000
 50
       90.000000
 51
      180.000005
  0
ARC
  8
0
 10
      194.395612
 20
      143.161563
 30
        0.000000
 40
        1.500000
 50
        0.000000
 51
       90.000000
  0
LINE
  8
0
 10
      126.895612
 20
       89.661569
 30
        0.000000
 11
      126.895612
 21
      143.161563
 31
        0.000000
  0
ARC
  8
0
 10
      127.395612
 20
      143.161563
 30
        0.000000
 40
        0.500000
 50
       90.000000
 51
      180.000005
  0
LINE
  8
0
 10
      194.395612
 20
      143.661563
 30
        0.000000
 11
      127.395612
 21
      143.661563
 31
        0.000000
  0
ARC
  8
0
 10
      194.395612
 20
      143.161563
 30
        0.000000
 40
        0.500000
 50
        0.000000
 51
       90.000000
  0
LINE
  8
0
 10
      194.895612
 20
       89.661569
 30
        0.000000
 11
      194.895612
 21
      143.161563
 31
        0.000000
  0
LINE
  8
0
 10
       69.000000
 20
      134.311556
 30
        0.000000
 11
       79.500000
 21
      134.311556
 31
        0.000000
  0
LINE
  8
0
 10
       70.250000
 20
      133.311556
 30
        0.000000
 11
       79.500000
 21
      133.311556
 31
        0.000000
  0
LINE
  8
0
 10
       70.250000
 20
      132.311556
 30
        0.000000
 11
       79.500000
 21
      132.311556
 31
        0.000000
  0
ARC
  8
0
 10
       70.250000
 20
      132.561556
 30
        0.000000
 40
        0.250000
 50
      180.000005
 51
      270.000000
  0
ARC
  8
0
 10
       70.250000
 20
      133.061556
 30
        0.000000
 40
        0.250000
 50
       90.000000
 51
      180.000005
  0
LINE
  8
0
 10
       70.000000
 20
      132.561556
 30
        0.000000
 11
       70.000000
 21
      133.061556
 31
        0.000000
  0
LINE
  8
0
 10
       67.500000
 20
      132.708670
 30
        0.000000
 11
       65.500000
 21
      132.708670
 31
        0.000000
  0
LINE
  8
0
 10
       65.500000
 20
      133.811556
 30
        0.000000
 11
       65.000000
 21
      133.811556
 31
        0.000000
  0
LINE
  8
0
 10
       80.500000
 20
      134.061556
 30
        0.000000
 11
       79.500000
 21
      134.061556
 31
        0.000000
  0
LINE
  8
0
 10
       79.500000
 20
      134.311556
 30
        0.000000
 11
       79.500000
 21
      133.311556
 31
        0.000000
  0
ARC
  8
0
 10
       80.500000
 20
      133.561556
 30
        0.000000
 40
        0.500000
 50
        0.000000
 51
       90.000000
  0
LINE
  8
0
 10
       70.250000
 20
      129.311556
 30
        0.000000
 11
       79.500000
 21
      129.311556
 31
        0.000000
  0
LINE
  8
0
 10
       70.250000
 20
      130.311556
 30
        0.000000
 11
       79.500000
 21
      130.311556
 31
        0.000000
  0
LINE
  8
0
 10
       70.250000
 20
      131.311556
 30
        0.000000
 11
       79.500000
 21
      131.311556
 31
        0.000000
  0
ARC
  8
0
 10
       70.250000
 20
      130.561556
 30
        0.000000
 40
        0.250000
 50
      180.000005
 51
      270.000000
  0
ARC
  8
0
 10
       70.250000
 20
      129.061556
 30
        0.000000
 40
        0.250000
 50
       90.000000
 51
      180.000005
  0
ARC
  8
0
 10
       70.250000
 20
      131.061556
 30
        0.000000
 40
        0.250000
 50
       90.000000
 51
      180.000005
  0
LINE
  8
0
 10
       70.000000
 20
      130.561556
 30
        0.000000
 11
       70.000000
 21
      131.061556
 31
        0.000000
  0
LINE
  8
0
 10
       67.500000
 20
      131.811556
 30
        0.000000
 11
       69.000000
 21
      131.811556
 31
        0.000000
  0
LINE
  8
0
 10
       79.500000
 20
      130.311556
 30
        0.000000
 11
       79.500000
 21
      129.311556
 31
        0.000000
  0
LINE
  8
0
 10
       79.500000
 20
      132.311556
 30
        0.000000
 11
       79.500000
 21
      131.311556
 31
        0.000000
  0
LINE
  8
0
 10
       69.000000
 20
      123.311556
 30
        0.000000
 11
       79.500000
 21
      123.311556
 31
        0.000000
  0
LINE
  8
0
 10
       70.250000
 20
      127.311556
 30
        0.000000
 11
       79.500000
 21
      127.311556
 31
        0.000000
  0
LINE
  8
0
 10
       70.250000
 20
      128.311556
 30
        0.000000
 11
       79.500000
 21
      128.311556
 31
        0.000000
  0
LINE
  8
0
 10
       70.250000
 20
      126.311556
 30
        0.000000
 11
       79.500000
 21
      126.311556
 31
        0.000000
  0
LINE
  8
0
 10
       70.250000
 20
      125.311556
 30
        0.000000
 11
       79.500000
 21
      125.311556
 31
        0.000000
  0
LINE
  8
0
 10
       70.250000
 20
      124.311556
 30
        0.000000
 11
       79.500000
 21
      124.311556
 31
        0.000000
  0
ARC
  8
0
 10
       70.250000
 20
      126.561556
 30
        0.000000
 40
        0.250000
 50
      180.000005
 51
      270.000000
  0
ARC
  8
0
 10
       70.250000
 20
      127.061556
 30
        0.000000
 40
        0.250000
 50
       90.000000
 51
      180.000005
  0
LINE
  8
0
 10
       70.000000
 20
      126.561556
 30
        0.000000
 11
       70.000000
 21
      127.061556
 31
        0.000000
  0
ARC
  8
0
 10
       70.250000
 20
      128.561556
 30
        0.000000
 40
        0.250000
 50
      180.000005
 51
      270.000000
  0
ARC
  8
0
 10
       70.250000
 20
      124.561556
 30
        0.000000
 40
        0.250000
 50
      180.000005
 51
      270.000000
  0
ARC
  8
0
 10
       70.250000
 20
      125.061556
 30
        0.000000
 40
        0.250000
 50
       90.000000
 51
      180.000005
  0
LINE
  8
0
 10
       70.000000
 20
      124.561556
 30
        0.000000
 11
       70.000000
 21
      125.061556
 31
        0.000000
  0
LINE
  8
0
 10
       67.500000
 20
      124.914441
 30
        0.000000
 11
       65.500000
 21
      124.914441
 31
        0.000000
  0
LINE
  8
0
 10
       65.500000
 20
      123.811556
 30
        0.000000
 11
       65.000000
 21
      123.811556
 31
        0.000000
  0
LINE
  8
0
 10
       67.500000
 20
      125.811556
 30
        0.000000
 11
       69.000000
 21
      125.811556
 31
        0.000000
  0
LINE
  8
0
 10
       79.500000
 20
      128.311556
 30
        0.000000
 11
       79.500000
 21
      127.311556
 31
        0.000000
  0
LINE
  8
0
 10
       79.500000
 20
      124.311556
 30
        0.000000
 11
       79.500000
 21
      123.311556
 31
        0.000000
  0
LINE
  8
0
 10
       80.500000
 20
      123.561556
 30
        0.000000
 11
       79.500000
 21
      123.561556
 31
        0.000000
  0
ARC
  8
0
 10
       80.500000
 20
      124.061556
 30
        0.000000
 40
        0.500000
 50
      270.000000
 51
      360.000000
  0
LINE
  8
0
 10
       79.500000
 20
      126.311556
 30
        0.000000
 11
       79.500000
 21
      125.311556
 31
        0.000000
  0
LINE
  8
0
 10
       70.000000
 20
      128.561556
 30
        0.000000
 11
       70.000000
 21
      129.061556
 31
        0.000000
  0
LINE
  8
0
 10
       68.500000
 20
      131.811556
 30
        0.000000
 11
       67.975068
 21
      125.811556
 31
        0.000000
  0
LINE
  8
0
 10
       65.500000
 20
      123.811556
 30
        0.000000
 11
       65.500000
 21
      133.811556
 31
        0.000000
  0
LINE
  8
0
 10
       67.500000
 20
      124.914441
 30
        0.000000
 11
       67.500000
 21
      132.708670
 31
        0.000000
  0
LINE
  8
0
 10
       69.000000
 20
      123.311556
 30
        0.000000
 11
       69.000000
 21
      134.311556
 31
        0.000000
  0
LINE
  8
0
 10
       81.000000
 20
      124.061556
 30
        0.000000
 11
       81.000000
 21
      133.561556
 31
        0.000000
  0
LINE
  8
0
 10
       81.000000
 20
      -15.750002
 30
        0.000000
 11
       81.000000
 21
       -6.250002
 31
        0.000000
  0
LINE
  8
0
 10
       69.000000
 20
      -16.500002
 30
        0.000000
 11
       69.000000
 21
       -5.500002
 31
        0.000000
  0
LINE
  8
0
 10
       67.500000
 20
      -14.897116
 30
        0.000000
 11
       67.500000
 21
       -7.102888
 31
        0.000000
  0
LINE
  8
0
 10
       65.500000
 20
      -16.000002
 30
        0.000000
 11
       65.500000
 21
       -6.000002
 31
        0.000000
  0
LINE
  8
0
 10
       79.500000
 20
       -7.500002
 30
        0.000000
 11
       79.500000
 21
       -8.500002
 31
        0.000000
  0
LINE
  8
0
 10
       70.250000
 20
      -15.500002
 30
        0.000000
 11
       79.500000
 21
      -15.500002
 31
        0.000000
  0
LINE
  8
0
 10
       70.250000
 20
      -14.500002
 30
        0.000000
 11
       79.500000
 21
      -14.500002
 31
        0.000000
  0
LINE
  8
0
 10
       70.250000
 20
      -13.500002
 30
        0.000000
 11
       79.500000
 21
      -13.500002
 31
        0.000000
  0
LINE
  8
0
 10
       70.250000
 20
      -11.500002
 30
        0.000000
 11
       79.500000
 21
      -11.500002
 31
        0.000000
  0
LINE
  8
0
 10
       70.250000
 20
      -12.500002
 30
        0.000000
 11
       79.500000
 21
      -12.500002
 31
        0.000000
  0
LINE
  8
0
 10
       69.000000
 20
      -16.500002
 30
        0.000000
 11
       79.500000
 21
      -16.500002
 31
        0.000000
  0
LINE
  8
0
 10
       70.250000
 20
       -8.500002
 30
        0.000000
 11
       79.500000
 21
       -8.500002
 31
        0.000000
  0
LINE
  8
0
 10
       70.250000
 20
       -9.500002
 30
        0.000000
 11
       79.500000
 21
       -9.500002
 31
        0.000000
  0
LINE
  8
0
 10
       70.250000
 20
      -10.500002
 30
        0.000000
 11
       79.500000
 21
      -10.500002
 31
        0.000000
  0
LINE
  8
0
 10
       68.500000
 20
       -8.000002
 30
        0.000000
 11
       67.975068
 21
      -14.000002
 31
        0.000000
  0
LINE
  8
0
 10
       70.000000
 20
      -11.250002
 30
        0.000000
 11
       70.000000
 21
      -10.750002
 31
        0.000000
  0
LINE
  8
0
 10
       67.500000
 20
      -14.000002
 30
        0.000000
 11
       69.000000
 21
      -14.000002
 31
        0.000000
  0
LINE
  8
0
 10
       65.500000
 20
      -16.000002
 30
        0.000000
 11
       65.000000
 21
      -16.000002
 31
        0.000000
  0
LINE
  8
0
 10
       67.500000
 20
      -14.897116
 30
        0.000000
 11
       65.500000
 21
      -14.897116
 31
        0.000000
  0
LINE
  8
0
 10
       70.000000
 20
      -15.250002
 30
        0.000000
 11
       70.000000
 21
      -14.750002
 31
        0.000000
  0
ARC
  8
0
 10
       70.250000
 20
      -14.750002
 30
        0.000000
 40
        0.250000
 50
       90.000000
 51
      180.000005
  0
ARC
  8
0
 10
       70.250000
 20
      -15.250002
 30
        0.000000
 40
        0.250000
 50
      180.000005
 51
      270.000000
  0
ARC
  8
0
 10
       70.250000
 20
      -11.250002
 30
        0.000000
 40
        0.250000
 50
      180.000005
 51
      270.000000
  0
LINE
  8
0
 10
       70.000000
 20
      -13.250002
 30
        0.000000
 11
       70.000000
 21
      -12.750002
 31
        0.000000
  0
ARC
  8
0
 10
       70.250000
 20
      -12.750002
 30
        0.000000
 40
        0.250000
 50
       90.000000
 51
      180.000005
  0
ARC
  8
0
 10
       70.250000
 20
      -13.250002
 30
        0.000000
 40
        0.250000
 50
      180.000005
 51
      270.000000
  0
LINE
  8
0
 10
       67.500000
 20
       -8.000002
 30
        0.000000
 11
       69.000000
 21
       -8.000002
 31
        0.000000
  0
LINE
  8
0
 10
       70.000000
 20
       -9.250002
 30
        0.000000
 11
       70.000000
 21
       -8.750002
 31
        0.000000
  0
ARC
  8
0
 10
       70.250000
 20
       -8.750002
 30
        0.000000
 40
        0.250000
 50
       90.000000
 51
      180.000005
  0
ARC
  8
0
 10
       70.250000
 20
      -10.750002
 30
        0.000000
 40
        0.250000
 50
       90.000000
 51
      180.000005
  0
ARC
  8
0
 10
       70.250000
 20
       -9.250002
 30
        0.000000
 40
        0.250000
 50
      180.000005
 51
      270.000000
  0
LINE
  8
0
 10
       79.500000
 20
      -13.500002
 30
        0.000000
 11
       79.500000
 21
      -14.500002
 31
        0.000000
  0
ARC
  8
0
 10
       80.500000
 20
      -15.750002
 30
        0.000000
 40
        0.500000
 50
      270.000000
 51
      360.000000
  0
LINE
  8
0
 10
       80.500000
 20
      -16.250002
 30
        0.000000
 11
       79.500000
 21
      -16.250002
 31
        0.000000
  0
LINE
  8
0
 10
       79.500000
 20
      -15.500002
 30
        0.000000
 11
       79.500000
 21
      -16.500002
 31
        0.000000
  0
LINE
  8
0
 10
       79.500000
 20
      -11.500002
 30
        0.000000
 11
       79.500000
 21
      -12.500002
 31
        0.000000
  0
LINE
  8
0
 10
       79.500000
 20
       -9.500002
 30
        0.000000
 11
       79.500000
 21
      -10.500002
 31
        0.000000
  0
LINE
  8
0
 10
       70.250000
 20
       -7.500002
 30
        0.000000
 11
       79.500000
 21
       -7.500002
 31
        0.000000
  0
LINE
  8
0
 10
       70.250000
 20
       -6.500002
 30
        0.000000
 11
       79.500000
 21
       -6.500002
 31
        0.000000
  0
LINE
  8
0
 10
       69.000000
 20
       -5.500002
 30
        0.000000
 11
       79.500000
 21
       -5.500002
 31
        0.000000
  0
LINE
  8
0
 10
       65.500000
 20
       -6.000002
 30
        0.000000
 11
       65.000000
 21
       -6.000002
 31
        0.000000
  0
LINE
  8
0
 10
       67.500000
 20
       -7.102888
 30
        0.000000
 11
       65.500000
 21
       -7.102888
 31
        0.000000
  0
LINE
  8
0
 10
       70.000000
 20
       -7.250002
 30
        0.000000
 11
       70.000000
 21
       -6.750002
 31
        0.000000
  0
ARC
  8
0
 10
       70.250000
 20
       -6.750002
 30
        0.000000
 40
        0.250000
 50
       90.000000
 51
      180.000005
  0
ARC
  8
0
 10
       70.250000
 20
       -7.250002
 30
        0.000000
 40
        0.250000
 50
      180.000005
 51
      270.000000
  0
ARC
  8
0
 10
       80.500000
 20
       -6.250002
 30
        0.000000
 40
        0.500000
 50
        0.000000
 51
       90.000000
  0
LINE
  8
0
 10
       79.500000
 20
       -5.500002
 30
        0.000000
 11
       79.500000
 21
       -6.500002
 31
        0.000000
  0
LINE
  8
0
 10
       80.500000
 20
       -5.750002
 30
        0.000000
 11
       79.500000
 21
       -5.750002
 31
        0.000000
  0
ARC
  8
0
 10
      127.640330
 20
      119.661576
 30
        0.000000
 40
        3.744889
 50
      117.768033
 51
      242.231967
  0
CIRCLE
  8
0
 10
       60.000000
 20
      119.661576
 30
        0.000000
 40
        3.300000
  0
LINE
  8
0
 10
       58.000000
 20
      119.411576
 30
        0.000000
 11
       59.750000
 21
      119.411576
 31
        0.000000
  0
LINE
  8
0
 10
       60.250000
 20
      119.411576
 30
        0.000000
 11
       62.000000
 21
      119.411576
 31
        0.000000
  0
LINE
  8
0
 10
       60.250000
 20
      117.661576
 30
        0.000000
 11
       60.250000
 21
      119.411576
 31
        0.000000
  0
LINE
  8
0
 10
       60.250000
 20
      119.911576
 30
        0.000000
 11
       60.250000
 21
      121.661576
 31
        0.000000
  0
LINE
  8
0
 10
       59.750000
 20
      117.661576
 30
        0.000000
 11
       59.750000
 21
      119.411576
 31
        0.000000
  0
LINE
  8
0
 10
       59.750000
 20
      119.911576
 30
        0.000000
 11
       59.750000
 21
      121.661576
 31
        0.000000
  0
LINE
  8
0
 10
       58.000000
 20
      119.911576
 30
        0.000000
 11
       59.750000
 21
      119.911576
 31
        0.000000
  0
LINE
  8
0
 10
       60.250000
 20
      119.911576
 30
        0.000000
 11
       62.000000
 21
      119.911576
 31
        0.000000
  0
LINE
  8
0
 10
       59.750000
 20
      119.411576
 30
        0.000000
 11
       60.250000
 21
      119.911576
 31
        0.000000
  0
LINE
  8
0
 10
       59.750000
 20
      119.911576
 30
        0.000000
 11
       60.250000
 21
      119.411576
 31
        0.000000
  0
LINE
  8
0
 10
       58.000000
 20
      119.911576
 30
        0.000000
 11
       58.000000
 21
      119.411576
 31
        0.000000
  0
LINE
  8
0
 10
       59.750000
 20
      117.661576
 30
        0.000000
 11
       60.250000
 21
      117.661576
 31
        0.000000
  0
LINE
  8
0
 10
       62.000000
 20
      119.911576
 30
        0.000000
 11
       62.000000
 21
      119.411576
 31
        0.000000
  0
LINE
  8
0
 10
       59.750000
 20
      121.661576
 30
        0.000000
 11
       60.250000
 21
      121.661576
 31
        0.000000
  0
CIRCLE
  8
0
 10
      -60.000000
 20
      119.661576
 30
        0.000000
 40
        3.300000
  0
LINE
  8
0
 10
      -62.000000
 20
      119.411576
 30
        0.000000
 11
      -60.250000
 21
      119.411576
 31
        0.000000
  0
LINE
  8
0
 10
      -59.750000
 20
      119.411576
 30
        0.000000
 11
      -58.000000
 21
      119.411576
 31
        0.000000
  0
LINE
  8
0
 10
      -59.750000
 20
      117.661576
 30
        0.000000
 11
      -59.750000
 21
      119.411576
 31
        0.000000
  0
LINE
  8
0
 10
      -59.750000
 20
      119.911576
 30
        0.000000
 11
      -59.750000
 21
      121.661576
 31
        0.000000
  0
LINE
  8
0
 10
      -60.250000
 20
      117.661576
 30
        0.000000
 11
      -60.250000
 21
      119.411576
 31
        0.000000
  0
LINE
  8
0
 10
      -60.250000
 20
      119.911576
 30
        0.000000
 11
      -60.250000
 21
      121.661576
 31
        0.000000
  0
LINE
  8
0
 10
      -62.000000
 20
      119.911576
 30
        0.000000
 11
      -60.250000
 21
      119.911576
 31
        0.000000
  0
LINE
  8
0
 10
      -59.750000
 20
      119.911576
 30
        0.000000
 11
      -58.000000
 21
      119.911576
 31
        0.000000
  0
LINE
  8
0
 10
      -60.250000
 20
      119.411576
 30
        0.000000
 11
      -59.750000
 21
      119.911576
 31
        0.000000
  0
LINE
  8
0
 10
      -60.250000
 20
      119.911576
 30
        0.000000
 11
      -59.750000
 21
      119.411576
 31
        0.000000
  0
LINE
  8
0
 10
      -62.000000
 20
      119.911576
 30
        0.000000
 11
      -62.000000
 21
      119.411576
 31
        0.000000
  0
LINE
  8
0
 10
      -60.250000
 20
      117.661576
 30
        0.000000
 11
      -59.750000
 21
      117.661576
 31
        0.000000
  0
LINE
  8
0
 10
      -58.000000
 20
      119.911576
 30
        0.000000
 11
      -58.000000
 21
      119.411576
 31
        0.000000
  0
LINE
  8
0
 10
      -60.250000
 20
      121.661576
 30
        0.000000
 11
      -59.750000
 21
      121.661576
 31
        0.000000
  0
ARC
  8
0
 10
      194.150894
 20
      119.661576
 30
        0.000000
 40
        3.744889
 50
      297.768038
 51
      422.231962
  0
ARC
  8
0
 10
     -165.432844
 20
      119.661576
 30
        0.000000
 40
        3.744889
 50
      117.768033
 51
      242.231967
  0
ARC
  8
0
 10
      -98.922280
 20
      119.661576
 30
        0.000000
 40
        3.744889
 50
      297.768038
 51
      422.231962
  0
ARC
  8
0
 10
      -60.000000
 20
       33.255287
 30
        0.000000
 40
        3.744889
 50
       27.768036
 51
      152.231959
  0
ARC
  8
0
 10
       60.000000
 20
       33.255287
 30
        0.000000
 40
        3.744889
 50
       27.768036
 51
      152.231959
  0
ARC
  8
0
 10
      -60.000000
 20
      -33.255287
 30
        0.000000
 40
        3.744889
 50
      207.768041
 51
      332.231964
  0
ARC
  8
0
 10
       60.000000
 20
      -33.255287
 30
        0.000000
 40
        3.744889
 50
      207.768041
 51
      332.231964
  0
LINE
  8
0
 10
      -73.350010
 20
      126.961554
 30
        0.000000
 11
      -65.000000
 21
      126.961554
 31
        0.000000
  0
LINE
  8
0
 10
      -73.350010
 20
       24.000005
 30
        0.000000
 11
      -73.350010
 21
       16.000005
 31
        0.000000
  0
ARC
  8
0
 10
      -67.000000
 20
        7.500000
 30
        0.000000
 40
        0.500000
 50
       90.000000
 51
      180.000005
  0
ARC
  8
0
 10
      -67.000000
 20
      -27.500000
 30
        0.000000
 40
        0.500000
 50
      180.000005
 51
      270.000000
  0
ARC
  8
0
 10
      -67.000000
 20
      115.661576
 30
        0.000000
 40
        0.500000
 50
       90.000000
 51
      180.000005
  0
ARC
  8
0
 10
      -67.000000
 20
       93.661576
 30
        0.000000
 40
        0.500000
 50
      180.000005
 51
      270.000000
  0
ARC
  8
0
 10
       66.500010
 20
      113.161525
 30
        0.000000
 40
        0.500000
 50
        0.000000
 51
       90.000000
  0
ARC
  8
0
 10
       66.500010
 20
       99.161525
 30
        0.000000
 40
        0.500000
 50
      270.000000
 51
      360.000000
  0
ARC
  8
0
 10
       66.500010
 20
       29.500005
 30
        0.000000
 40
        0.500000
 50
        0.000000
 51
       90.000000
  0
ARC
  8
0
 10
       66.500010
 20
        9.499985
 30
        0.000000
 40
        0.500000
 50
      270.000000
 51
      360.000000
  0
ARC
  8
0
 10
       69.440900
 20
       24.174449
 30
        0.000000
 40
        0.500000
 50
      335.908412
 51
      390.347776
  0
CIRCLE
  8
7
 10
      131.652885
 20
       94.901380
 30
        0.000000
 40
        2.498336
  0
CIRCLE
  8
7
 10
      131.652885
 20
       94.901380
 30
        0.000000
 40
        1.498336
  0
LINE
  8
7
 10
      152.015235
 20
       97.399716
 30
        0.000000
 11
      152.015235
 21
       92.403043
 31
        0.000000
  0
LINE
  8
7
 10
      153.015235
 20
       97.399716
 30
        0.000000
 11
      153.015235
 21
       92.403043
 31
        0.000000
  0
LINE
  8
7
 10
      152.015235
 20
       97.399716
 30
        0.000000
 11
      153.015235
 21
       97.399716
 31
        0.000000
  0
LINE
  8
7
 10
      152.015235
 20
       92.403043
 30
        0.000000
 11
      153.015235
 21
       92.403043
 31
        0.000000
  0
LINE
  8
0
 10
     -154.177553
 20
      108.828226
 30
        0.000000
 11
     -154.177567
 21
       98.661556
 31
        0.000000
  0
LINE
  8
0
 10
     -130.177578
 20
      108.828226
 30
        0.000000
 11
     -130.177567
 21
       98.661556
 31
        0.000000
  0
LINE
  8
0
 10
     -150.344223
 20
      112.661556
 30
        0.000000
 11
     -134.010908
 21
      112.661556
 31
        0.000000
  0
LINE
  8
0
 10
     -152.177567
 20
       96.661556
 30
        0.000000
 11
     -132.177567
 21
       96.661556
 31
        0.000000
  0
LINE
  8
0
 10
     -154.177553
 20
      108.828226
 30
        0.000000
 11
     -150.344223
 21
      112.661556
 31
        0.000000
  0
LINE
  8
0
 10
     -130.177578
 20
      108.828226
 30
        0.000000
 11
     -134.010908
 21
      112.661556
 31
        0.000000
  0
LINE
  8
0
 10
     -143.179053
 20
      109.164886
 30
        0.000000
 11
     -141.179043
 21
      109.164886
 31
        0.000000
  0
LINE
  8
0
 10
     -141.179043
 20
      109.164886
 30
        0.000000
 11
     -141.179043
 21
      105.164876
 31
        0.000000
  0
LINE
  8
0
 10
     -141.179043
 20
      105.164876
 30
        0.000000
 11
     -143.179053
 21
      105.164876
 31
        0.000000
  0
LINE
  8
0
 10
     -143.179053
 20
      105.164876
 30
        0.000000
 11
     -143.179053
 21
      109.164886
 31
        0.000000
  0
LINE
  8
0
 10
     -150.186493
 20
      101.153636
 30
        0.000000
 11
     -150.186493
 21
      105.153646
 31
        0.000000
  0
LINE
  8
0
 10
     -148.186483
 20
      105.153646
 30
        0.000000
 11
     -148.186483
 21
      101.153636
 31
        0.000000
  0
LINE
  8
0
 10
     -148.186483
 20
      101.153636
 30
        0.000000
 11
     -150.186493
 21
      101.153636
 31
        0.000000
  0
LINE
  8
0
 10
     -150.186493
 20
      105.153646
 30
        0.000000
 11
     -148.186483
 21
      105.153646
 31
        0.000000
  0
LINE
  8
0
 10
     -136.186506
 20
      101.153636
 30
        0.000000
 11
     -136.186506
 21
      105.153646
 31
        0.000000
  0
LINE
  8
0
 10
     -134.186496
 20
      105.153646
 30
        0.000000
 11
     -134.186496
 21
      101.153636
 31
        0.000000
  0
LINE
  8
0
 10
     -134.186496
 20
      101.153636
 30
        0.000000
 11
     -136.186506
 21
      101.153636
 31
        0.000000
  0
LINE
  8
0
 10
     -136.186506
 20
      105.153646
 30
        0.000000
 11
     -134.186496
 21
      105.153646
 31
        0.000000
  0
ARC
  8
0
 10
     -152.177567
 20
       98.661556
 30
        0.000000
 40
        2.000000
 50
      180.000005
 51
      270.000000
  0
ARC
  8
0
 10
     -132.177567
 20
       98.661556
 30
        0.000000
 40
        2.000000
 50
      270.000000
 51
      360.000000
  0
LINE
  8
0
 10
     -160.177567
 20
      109.828226
 30
        0.000000
 11
     -160.177567
 21
       97.661556
 31
        0.000000
  0
LINE
  8
0
 10
     -124.177567
 20
      109.828226
 30
        0.000000
 11
     -124.177567
 21
       97.661556
 31
        0.000000
  0
LINE
  8
0
 10
     -153.344237
 20
      116.661556
 30
        0.000000
 11
     -131.010897
 21
      116.661556
 31
        0.000000
  0
LINE
  8
0
 10
     -155.177567
 20
       92.661556
 30
        0.000000
 11
     -129.177567
 21
       92.661556
 31
        0.000000
  0
LINE
  8
0
 10
     -124.177567
 20
      109.828226
 30
        0.000000
 11
     -131.010897
 21
      116.661556
 31
        0.000000
  0
LINE
  8
0
 10
     -160.177567
 20
      109.828226
 30
        0.000000
 11
     -153.344237
 21
      116.661556
 31
        0.000000
  0
ARC
  8
0
 10
     -155.177567
 20
       97.661556
 30
        0.000000
 40
        5.000000
 50
      180.000005
 51
      270.000000
  0
ARC
  8
0
 10
     -129.177567
 20
       97.661556
 30
        0.000000
 40
        5.000000
 50
      270.000000
 51
      360.000000
  0
LINE
  8
0
 10
     -152.930023
 20
      115.661556
 30
        0.000000
 11
     -131.425110
 21
      115.661556
 31
        0.000000
  0
LINE
  8
0
 10
     -159.177567
 20
      109.414012
 30
        0.000000
 11
     -152.930023
 21
      115.661556
 31
        0.000000
  0
LINE
  8
0
 10
     -159.177567
 20
      109.414012
 30
        0.000000
 11
     -159.177567
 21
       97.661556
 31
        0.000000
  0
ARC
  8
0
 10
     -155.177567
 20
       97.661556
 30
        0.000000
 40
        4.000000
 50
      180.000005
 51
      270.000000
  0
LINE
  8
0
 10
     -155.177567
 20
       93.661556
 30
        0.000000
 11
     -129.177567
 21
       93.661556
 31
        0.000000
  0
ARC
  8
0
 10
     -129.177567
 20
       97.661556
 30
        0.000000
 40
        4.000000
 50
      270.000000
 51
      360.000000
  0
LINE
  8
0
 10
     -125.177567
 20
      109.414012
 30
        0.000000
 11
     -125.177567
 21
       97.661556
 31
        0.000000
  0
LINE
  8
0
 10
     -125.177567
 20
      109.414012
 30
        0.000000
 11
     -131.425110
 21
      115.661556
 31
        0.000000
  0
LINE
  8
0
 10
     -161.277567
 20
      108.661556
 30
        0.000000
 11
     -160.177567
 21
      108.661556
 31
        0.000000
  0
LINE
  8
0
 10
     -161.277567
 20
       98.661556
 30
        0.000000
 11
     -160.177567
 21
       98.661556
 31
        0.000000
  0
LINE
  8
0
 10
     -161.277567
 20
      108.661556
 30
        0.000000
 11
     -161.277567
 21
       98.661556
 31
        0.000000
  0
LINE
  8
0
 10
     -123.077567
 20
      108.661556
 30
        0.000000
 11
     -123.077567
 21
       98.661556
 31
        0.000000
  0
LINE
  8
0
 10
     -124.177567
 20
       98.661556
 30
        0.000000
 11
     -123.077567
 21
       98.661556
 31
        0.000000
  0
LINE
  8
0
 10
     -124.177567
 20
      108.661556
 30
        0.000000
 11
     -123.077567
 21
      108.661556
 31
        0.000000
  0
INSERT
  8
4
  2
BLK0007
 10
        0.000000
 20
        0.000000
  0
ENDSEC
  0
EOF
