  0
SECTION
  2
HEADER
  9
$ACADVER
  1
AC1006
  9
$INSBASE
 10
0.0
 20
0.0
 30
0.0
  9
$EXTMIN
 10
     -196.091812
 20
      -35.283424
  9
$EXTMAX
 10
      206.061295
 20
      171.594849
  9
$LIMMIN
 10
     -196.091812
 20
      -35.283424
  9
$LIMMAX
 10
      206.061295
 20
      171.594849
  9
$VIEWCTR
 10
        4.984741
 20
        4.984741
  9
$ORTHOMODE
 70
     0
  9
$ANGBASE
 50
0.0
  9
$ANGDIR
 70
     0
  9
$SPLINETYPE
 70
     6
  9
$SPLINESEGS
 70
     8
9
$DIMASZ
 40
        4.000000
9
$DIMEXE
 40
        1.000000
9
$DIMEXO
 40
        2.500000
9
$DIMTXT
 40
        6.000000
9
$DIMGAP
 40
        1.000000
9
$DIMTAD
 70
1
9
$DIMTIH
 70
0
9
$DIMTOH
 70
0
  0
ENDSEC
  0
SECTION
  2
TABLES
  0
TABLE
  2
LTYPE
 70
     5
  0
LTYPE
  2
CONTINUOUS
 70
    64
  3
SOLID LINE
 72
    65
 73
     0
 40
0.0
  0
LTYPE
  2
DASHED
 70
    64
  3
-- -- -- -- -- --
 72
    65
 73
     2
 40
  0.75  
 49
  0.50  
 49
 -0.25  
  0
LTYPE
  2
DOT
 70
    64
  3
....................
 72
    65
 73
     2
 40
  0.25  
 49
  0.02  
 49
 -0.23  
  0
LTYPE
  2
CENTER
 70
    64
  3
-- . -- . -- . -- .
 72
    65
 73
    4
 40
  2.00  
 49
  1.25  
 49
 -0.25  
 49
  0.25  
 49
 -0.25  
  0
LTYPE
  2
PHANTOM
 70
    64
  3
-- .. -- .. -- ..
 72
    65
 73
    6
 40
  2.50  
 49
  1.25  
 49
 -0.25  
 49
  0.25  
 49
 -0.25  
 49
  0.25  
 49
 -0.25  
  0
ENDTAB
  0
TABLE
  2
LAYER
 70
     4
  0
LAYER
  2
0
 70
    64
 62
     3
  6
CONTINUOUS
  0
LAYER
  2
4
 70
    64
 62
     2
  6
CONTINUOUS
  0
LAYER
  2
6
 70
    64
 62
     3
  6
CONTINUOUS
  0
LAYER
  2
10
 70
    64
 62
     2
  6
CONTINUOUS
  0
ENDTAB
  0
TABLE
  2
STYLE
 70
     2
  0
STYLE
  2
STANDARD
 70
    64
 40
0.0
 41
1.0
 50
0.0
 71
     0
 42
5.0
  3
ROMANS
  4
BIGFONT
  0
STYLE
  2
BIGFONT
 70
    64
 40
0.0
 41
1.0
 50
0.0
 71
     0
 42
5.0
  3
ROMANS
  4
BIGFONT
  0
ENDTAB
  0
TABLE
  2
VIEW
 70
     0
  0
ENDTAB
  0
TABLE
  2
UCS
 70
     0
  0
ENDTAB
  0
TABLE
  2
DWGMGR
 70
     0
  0
ENDTAB
  0
ENDSEC
  0
SECTION
  2
BLOCKS
  0
BLOCK
  8
0
  2
BLK0001
 70
    64
 10
        0.000000
 20
        0.000000
  0
LINE
  8
10
 10
      -42.000000
 20
       53.000000
 30
        0.000000
 11
      -52.047281
 21
       53.000000
 31
        0.000000
  0
LINE
  8
10
 10
      -42.000000
 20
        9.000000
 30
        0.000000
 11
      -52.047281
 21
        9.000000
 31
        0.000000
  0
LINE
  8
10
 10
      -49.047281
 20
       49.000000
 30
        0.000000
 11
      -49.047281
 21
       13.000000
 31
        0.000000
  0
LINE
  8
10
 10
      -49.047281
 20
       49.000000
 30
        0.000000
 11
      -49.047281
 21
       53.000000
 31
        0.000000
  0
LINE
  8
10
 10
      -49.047281
 20
       53.000000
 30
        0.000000
 11
      -50.119077
 21
       49.000000
 31
        0.000000
  0
LINE
  8
10
 10
      -49.047281
 20
       53.000000
 30
        0.000000
 11
      -47.975484
 21
       49.000000
 31
        0.000000
  0
LINE
  8
10
 10
      -49.047281
 20
       13.000000
 30
        0.000000
 11
      -49.047281
 21
        9.000000
 31
        0.000000
  0
LINE
  8
10
 10
      -49.047281
 20
        9.000000
 30
        0.000000
 11
      -47.975485
 21
       13.000000
 31
        0.000000
  0
LINE
  8
10
 10
      -49.047281
 20
        9.000000
 30
        0.000000
 11
      -50.119078
 21
       13.000000
 31
        0.000000
  0
TEXT
  8
10
 10
      -51.047281
 20
       25.000000
 30
        0.000000
 40
        6.000000
  1
４４
 50
       90.000000
 41
        1.000000
 51
        0.000000
  7
BIGFONT
  0
ENDBLK
  0
BLOCK
  8
0
  2
BLK0002
 70
    64
 10
        0.000000
 20
        0.000000
  0
LINE
  8
10
 10
      -65.500000
 20
      155.103896
 30
        0.000000
 11
      -65.500000
 21
      171.594852
 31
        0.000000
  0
LINE
  8
10
 10
       65.500000
 20
      155.103896
 30
        0.000000
 11
       65.500000
 21
      171.594852
 31
        0.000000
  0
LINE
  8
10
 10
      -61.500000
 20
      168.594852
 30
        0.000000
 11
       61.500000
 21
      168.594852
 31
        0.000000
  0
LINE
  8
10
 10
      -61.500000
 20
      168.594853
 30
        0.000000
 11
      -65.500000
 21
      168.594852
 31
        0.000000
  0
LINE
  8
10
 10
      -65.500000
 20
      168.594852
 30
        0.000000
 11
      -61.500000
 21
      167.523056
 31
        0.000000
  0
LINE
  8
10
 10
      -65.500000
 20
      168.594852
 30
        0.000000
 11
      -61.500000
 21
      169.666649
 31
        0.000000
  0
LINE
  8
10
 10
       61.500000
 20
      168.594852
 30
        0.000000
 11
       65.500000
 21
      168.594852
 31
        0.000000
  0
LINE
  8
10
 10
       65.500000
 20
      168.594852
 30
        0.000000
 11
       61.500000
 21
      169.666649
 31
        0.000000
  0
LINE
  8
10
 10
       65.500000
 20
      168.594852
 30
        0.000000
 11
       61.500000
 21
      167.523055
 31
        0.000000
  0
TEXT
  8
10
 10
       -9.000000
 20
      170.594852
 30
        0.000000
 40
        6.000000
  1
１３１
 50
        0.000000
 41
        1.000000
 51
        0.000000
  7
BIGFONT
  0
ENDBLK
  0
BLOCK
  8
0
  2
BLK0003
 70
    64
 10
        0.000000
 20
        0.000000
  0
LINE
  8
10
 10
      -50.000000
 20
       -7.000000
 30
        0.000000
 11
      -50.000000
 21
      -22.145324
 31
        0.000000
  0
LINE
  8
10
 10
       50.000000
 20
       -7.000000
 30
        0.000000
 11
       50.000000
 21
      -22.145324
 31
        0.000000
  0
LINE
  8
10
 10
      -46.000000
 20
      -19.145324
 30
        0.000000
 11
       46.000000
 21
      -19.145324
 31
        0.000000
  0
LINE
  8
10
 10
      -46.000000
 20
      -19.145323
 30
        0.000000
 11
      -50.000000
 21
      -19.145324
 31
        0.000000
  0
LINE
  8
10
 10
      -50.000000
 20
      -19.145324
 30
        0.000000
 11
      -46.000000
 21
      -20.217120
 31
        0.000000
  0
LINE
  8
10
 10
      -50.000000
 20
      -19.145324
 30
        0.000000
 11
      -46.000000
 21
      -18.073526
 31
        0.000000
  0
LINE
  8
10
 10
       46.000000
 20
      -19.145324
 30
        0.000000
 11
       50.000000
 21
      -19.145324
 31
        0.000000
  0
LINE
  8
10
 10
       50.000000
 20
      -19.145324
 30
        0.000000
 11
       46.000000
 21
      -18.073527
 31
        0.000000
  0
LINE
  8
10
 10
       50.000000
 20
      -19.145324
 30
        0.000000
 11
       46.000000
 21
      -20.217120
 31
        0.000000
  0
TEXT
  8
10
 10
       -9.000000
 20
      -17.145324
 30
        0.000000
 40
        6.000000
  1
１００
 50
        0.000000
 41
        1.000000
 51
        0.000000
  7
BIGFONT
  0
ENDBLK
  0
BLOCK
  8
0
  2
BLK0004
 70
    64
 10
        0.000000
 20
        0.000000
  0
LINE
  8
10
 10
      -50.000000
 20
       -5.000000
 30
        0.000000
 11
      -51.931267
 21
       -8.502886
 31
        0.000000
  0
LINE
  8
10
 10
      -50.000000
 20
       -5.000000
 30
        0.000000
 11
      -52.772074
 21
       -7.883679
 31
        0.000000
  0
LINE
  8
10
 10
      -50.000000
 20
       -5.000000
 30
        0.000000
 11
      -69.349678
 21
      -31.274516
 31
        0.000000
  0
LINE
  8
10
 10
      -69.349678
 20
      -31.274516
 30
        0.000000
 11
      -61.810221
 21
      -31.274516
 31
        0.000000
  0
ENDBLK
  0
BLOCK
  8
0
  2
BLK0005
 70
    64
 10
        0.000000
 20
        0.000000
  0
LINE
  8
10
 10
       50.000000
 20
       -7.000000
 30
        0.000000
 11
       50.000000
 21
      -22.145324
 31
        0.000000
  0
LINE
  8
10
 10
       65.500000
 20
       -0.500000
 30
        0.000000
 11
       65.500000
 21
      -22.145324
 31
        0.000000
  0
LINE
  8
10
 10
       54.000000
 20
      -19.145324
 30
        0.000000
 11
       61.500000
 21
      -19.145324
 31
        0.000000
  0
LINE
  8
10
 10
       65.500000
 20
      -19.145324
 30
        0.000000
 11
       89.500000
 21
      -19.145324
 31
        0.000000
  0
LINE
  8
10
 10
       54.000000
 20
      -19.145323
 30
        0.000000
 11
       50.000000
 21
      -19.145324
 31
        0.000000
  0
LINE
  8
10
 10
       50.000000
 20
      -19.145324
 30
        0.000000
 11
       54.000000
 21
      -20.217120
 31
        0.000000
  0
LINE
  8
10
 10
       50.000000
 20
      -19.145324
 30
        0.000000
 11
       54.000000
 21
      -18.073526
 31
        0.000000
  0
LINE
  8
10
 10
       61.500000
 20
      -19.145324
 30
        0.000000
 11
       65.500000
 21
      -19.145324
 31
        0.000000
  0
LINE
  8
10
 10
       65.500000
 20
      -19.145324
 30
        0.000000
 11
       61.500000
 21
      -18.073527
 31
        0.000000
  0
LINE
  8
10
 10
       65.500000
 20
      -19.145324
 30
        0.000000
 11
       61.500000
 21
      -20.217120
 31
        0.000000
  0
TEXT
  8
10
 10
       67.500000
 20
      -17.145324
 30
        0.000000
 40
        6.000000
  1
１５．５
 50
        0.000000
 41
        1.000000
 51
        0.000000
  7
BIGFONT
  0
ENDBLK
  0
BLOCK
  8
0
  2
BLK0006
 70
    64
 10
        0.000000
 20
        0.000000
  0
TEXT
  8
10
 10
       94.582520
 20
      -32.331013
 30
        0.000000
 40
        6.000000
  1
４－Ｍ３ｘ５（Ｄｅｐｔｈ）
 50
        0.000000
 41
        1.000000
 51
        0.000000
  7
BIGFONT
  0
LINE
  8
10
 10
      173.582520
 20
      -33.331013
 30
        0.000000
 11
       93.582520
 21
      -33.331013
 31
        0.000000
  0
LINE
  8
10
 10
       93.582520
 20
      -33.331013
 30
        0.000000
 11
       41.066261
 21
        7.944972
 31
        0.000000
  0
LINE
  8
10
 10
       44.599415
 20
        5.967195
 30
        0.000000
 11
       41.066261
 21
        7.944972
 31
        0.000000
  0
LINE
  8
10
 10
       41.066261
 20
        7.944972
 30
        0.000000
 11
       43.822884
 21
        4.979198
 31
        0.000000
  0
ENDBLK
  0
BLOCK
  8
0
  2
BLK0007
 70
    64
 10
        0.000000
 20
        0.000000
  0
LINE
  8
10
 10
      143.508902
 20
       -7.000000
 30
        0.000000
 11
      143.508902
 21
      -21.035482
 31
        0.000000
  0
LINE
  8
10
 10
      178.508902
 20
       -7.000000
 30
        0.000000
 11
      178.508902
 21
      -21.035482
 31
        0.000000
  0
LINE
  8
10
 10
      147.508902
 20
      -18.035482
 30
        0.000000
 11
      174.508902
 21
      -18.035482
 31
        0.000000
  0
LINE
  8
10
 10
      147.508902
 20
      -18.035481
 30
        0.000000
 11
      143.508902
 21
      -18.035482
 31
        0.000000
  0
LINE
  8
10
 10
      143.508902
 20
      -18.035482
 30
        0.000000
 11
      147.508902
 21
      -19.107278
 31
        0.000000
  0
LINE
  8
10
 10
      143.508902
 20
      -18.035482
 30
        0.000000
 11
      147.508902
 21
      -16.963685
 31
        0.000000
  0
LINE
  8
10
 10
      174.508902
 20
      -18.035482
 30
        0.000000
 11
      178.508902
 21
      -18.035482
 31
        0.000000
  0
LINE
  8
10
 10
      178.508902
 20
      -18.035482
 30
        0.000000
 11
      174.508902
 21
      -16.963685
 31
        0.000000
  0
LINE
  8
10
 10
      178.508902
 20
      -18.035482
 30
        0.000000
 11
      174.508902
 21
      -19.107278
 31
        0.000000
  0
TEXT
  8
10
 10
      155.008902
 20
      -16.035482
 30
        0.000000
 40
        6.000000
  1
３５
 50
        0.000000
 41
        1.000000
 51
        0.000000
  7
BIGFONT
  0
ENDBLK
  0
BLOCK
  8
0
  2
BLK0008
 70
    64
 10
        0.000000
 20
        0.000000
  0
LINE
  8
10
 10
      186.508902
 20
       60.000000
 30
        0.000000
 11
      206.061290
 21
       60.000000
 31
        0.000000
  0
LINE
  8
10
 10
      188.008902
 20
        0.000000
 30
        0.000000
 11
      206.061290
 21
        0.000000
 31
        0.000000
  0
LINE
  8
10
 10
      203.061290
 20
       56.000000
 30
        0.000000
 11
      203.061290
 21
        4.000000
 31
        0.000000
  0
LINE
  8
10
 10
      203.061290
 20
       56.000000
 30
        0.000000
 11
      203.061290
 21
       60.000000
 31
        0.000000
  0
LINE
  8
10
 10
      203.061290
 20
       60.000000
 30
        0.000000
 11
      201.989494
 21
       56.000000
 31
        0.000000
  0
LINE
  8
10
 10
      203.061290
 20
       60.000000
 30
        0.000000
 11
      204.133087
 21
       56.000000
 31
        0.000000
  0
LINE
  8
10
 10
      203.061290
 20
        4.000000
 30
        0.000000
 11
      203.061290
 21
        0.000000
 31
        0.000000
  0
LINE
  8
10
 10
      203.061290
 20
        0.000000
 30
        0.000000
 11
      204.133087
 21
        4.000000
 31
        0.000000
  0
LINE
  8
10
 10
      203.061290
 20
        0.000000
 30
        0.000000
 11
      201.989493
 21
        4.000000
 31
        0.000000
  0
TEXT
  8
10
 10
      201.061290
 20
       24.000000
 30
        0.000000
 40
        6.000000
  1
６０
 50
       90.000000
 41
        1.000000
 51
        0.000000
  7
BIGFONT
  0
ENDBLK
  0
BLOCK
  8
0
  2
BLK0009
 70
    64
 10
        0.000000
 20
        0.000000
  0
LINE
  8
10
 10
      136.008902
 20
       60.500000
 30
        0.000000
 11
      136.008902
 21
       73.448850
 31
        0.000000
  0
LINE
  8
10
 10
      186.008902
 20
       60.500000
 30
        0.000000
 11
      186.008902
 21
       73.448850
 31
        0.000000
  0
LINE
  8
10
 10
      140.008902
 20
       70.448850
 30
        0.000000
 11
      182.008902
 21
       70.448850
 31
        0.000000
  0
LINE
  8
10
 10
      140.008902
 20
       70.448850
 30
        0.000000
 11
      136.008902
 21
       70.448850
 31
        0.000000
  0
LINE
  8
10
 10
      136.008902
 20
       70.448850
 30
        0.000000
 11
      140.008902
 21
       69.377053
 31
        0.000000
  0
LINE
  8
10
 10
      136.008902
 20
       70.448850
 30
        0.000000
 11
      140.008902
 21
       71.520647
 31
        0.000000
  0
LINE
  8
10
 10
      182.008902
 20
       70.448850
 30
        0.000000
 11
      186.008902
 21
       70.448850
 31
        0.000000
  0
LINE
  8
10
 10
      186.008902
 20
       70.448850
 30
        0.000000
 11
      182.008902
 21
       71.520646
 31
        0.000000
  0
LINE
  8
10
 10
      186.008902
 20
       70.448850
 30
        0.000000
 11
      182.008902
 21
       69.377053
 31
        0.000000
  0
TEXT
  8
10
 10
      155.008902
 20
       72.448850
 30
        0.000000
 40
        6.000000
  1
５０
 50
        0.000000
 41
        1.000000
 51
        0.000000
  7
BIGFONT
  0
ENDBLK
  0
BLOCK
  8
0
  2
BLK0010
 70
    64
 10
        0.000000
 20
        0.000000
  0
LINE
  8
10
 10
       40.000000
 20
       55.000000
 30
        0.000000
 11
       40.000000
 21
       76.012382
 31
        0.000000
  0
LINE
  8
10
 10
       65.500000
 20
       62.000000
 30
        0.000000
 11
       65.500000
 21
       76.012382
 31
        0.000000
  0
LINE
  8
10
 10
       44.000000
 20
       73.012382
 30
        0.000000
 11
       61.500000
 21
       73.012382
 31
        0.000000
  0
LINE
  8
10
 10
       44.000000
 20
       73.012382
 30
        0.000000
 11
       40.000000
 21
       73.012382
 31
        0.000000
  0
LINE
  8
10
 10
       40.000000
 20
       73.012382
 30
        0.000000
 11
       44.000000
 21
       71.940585
 31
        0.000000
  0
LINE
  8
10
 10
       40.000000
 20
       73.012382
 30
        0.000000
 11
       44.000000
 21
       74.084179
 31
        0.000000
  0
LINE
  8
10
 10
       61.500000
 20
       73.012382
 30
        0.000000
 11
       65.500000
 21
       73.012382
 31
        0.000000
  0
LINE
  8
10
 10
       65.500000
 20
       73.012382
 30
        0.000000
 11
       61.500000
 21
       74.084178
 31
        0.000000
  0
LINE
  8
10
 10
       65.500000
 20
       73.012382
 30
        0.000000
 11
       61.500000
 21
       71.940585
 31
        0.000000
  0
TEXT
  8
10
 10
       40.750000
 20
       75.012382
 30
        0.000000
 40
        6.000000
  1
２５．５
 50
        0.000000
 41
        1.000000
 51
        0.000000
  7
BIGFONT
  0
ENDBLK
  0
BLOCK
  8
0
  2
BLK0011
 70
    64
 10
        0.000000
 20
        0.000000
  0
LINE
  8
10
 10
      -40.000000
 20
       55.000000
 30
        0.000000
 11
      -40.000000
 21
       76.012382
 31
        0.000000
  0
LINE
  8
10
 10
       40.000000
 20
       55.000000
 30
        0.000000
 11
       40.000000
 21
       76.012382
 31
        0.000000
  0
LINE
  8
10
 10
      -36.000000
 20
       73.012382
 30
        0.000000
 11
       36.000000
 21
       73.012382
 31
        0.000000
  0
LINE
  8
10
 10
      -36.000000
 20
       73.012382
 30
        0.000000
 11
      -40.000000
 21
       73.012382
 31
        0.000000
  0
LINE
  8
10
 10
      -40.000000
 20
       73.012382
 30
        0.000000
 11
      -36.000000
 21
       71.940585
 31
        0.000000
  0
LINE
  8
10
 10
      -40.000000
 20
       73.012382
 30
        0.000000
 11
      -36.000000
 21
       74.084179
 31
        0.000000
  0
LINE
  8
10
 10
       36.000000
 20
       73.012382
 30
        0.000000
 11
       40.000000
 21
       73.012382
 31
        0.000000
  0
LINE
  8
10
 10
       40.000000
 20
       73.012382
 30
        0.000000
 11
       36.000000
 21
       74.084178
 31
        0.000000
  0
LINE
  8
10
 10
       40.000000
 20
       73.012382
 30
        0.000000
 11
       36.000000
 21
       71.940585
 31
        0.000000
  0
TEXT
  8
10
 10
       -6.000000
 20
       75.012382
 30
        0.000000
 40
        6.000000
  1
８０
 50
        0.000000
 41
        1.000000
 51
        0.000000
  7
BIGFONT
  0
ENDBLK
  0
BLOCK
  8
0
  2
BLK0012
 70
    64
 10
        0.000000
 20
        0.000000
  0
LINE
  8
10
 10
      -42.000000
 20
       53.000000
 30
        0.000000
 11
      -52.047281
 21
       53.000000
 31
        0.000000
  0
LINE
  8
10
 10
      -42.000000
 20
       60.000000
 30
        0.000000
 11
      -52.047281
 21
       60.000000
 31
        0.000000
  0
LINE
  8
10
 10
      -49.047281
 20
       49.000000
 30
        0.000000
 11
      -49.047281
 21
       45.000000
 31
        0.000000
  0
LINE
  8
10
 10
      -49.047281
 20
       64.000000
 30
        0.000000
 11
      -49.047281
 21
       76.000000
 31
        0.000000
  0
LINE
  8
10
 10
      -49.047281
 20
       53.000000
 30
        0.000000
 11
      -49.047281
 21
       60.000000
 31
        0.000000
  0
LINE
  8
10
 10
      -49.047281
 20
       49.000000
 30
        0.000000
 11
      -49.047281
 21
       53.000000
 31
        0.000000
  0
LINE
  8
10
 10
      -49.047281
 20
       53.000000
 30
        0.000000
 11
      -50.119077
 21
       49.000000
 31
        0.000000
  0
LINE
  8
10
 10
      -49.047281
 20
       53.000000
 30
        0.000000
 11
      -47.975484
 21
       49.000000
 31
        0.000000
  0
LINE
  8
10
 10
      -49.047281
 20
       64.000000
 30
        0.000000
 11
      -49.047281
 21
       60.000000
 31
        0.000000
  0
LINE
  8
10
 10
      -49.047281
 20
       60.000000
 30
        0.000000
 11
      -47.975485
 21
       64.000000
 31
        0.000000
  0
LINE
  8
10
 10
      -49.047281
 20
       60.000000
 30
        0.000000
 11
      -50.119078
 21
       64.000000
 31
        0.000000
  0
TEXT
  8
10
 10
      -51.047281
 20
       69.000000
 30
        0.000000
 40
        6.000000
  1
７
 50
       90.000000
 41
        1.000000
 51
        0.000000
  7
BIGFONT
  0
ENDBLK
  0
BLOCK
  8
0
  2
BLK0013
 70
    64
 10
        0.000000
 20
        0.000000
  0
TEXT
  8
10
 10
     -216.428391
 20
      -24.061008
 30
        0.000000
 40
        6.000000
  1
ＡＣ　ＩＮＬＥＴ
 50
        0.000000
 41
        1.000000
 51
        0.000000
  7
BIGFONT
  0
LINE
  8
10
 10
     -217.428391
 20
      -25.061008
 30
        0.000000
 11
     -167.428391
 21
      -25.061008
 31
        0.000000
  0
LINE
  8
10
 10
     -167.428391
 20
      -25.061008
 30
        0.000000
 11
     -148.115295
 21
        2.669733
 31
        0.000000
  0
LINE
  8
10
 10
     -149.885727
 20
       -0.971747
 30
        0.000000
 11
     -148.115295
 21
        2.669733
 31
        0.000000
  0
LINE
  8
10
 10
     -148.115295
 20
        2.669733
 30
        0.000000
 11
     -150.916916
 21
       -0.253572
 31
        0.000000
  0
ENDBLK
  0
ENDSEC
  0
SECTION
  2
ENTITIES
  0
INSERT
  8
10
 62
  5
  2
BLK0001
 10
        0.000000
 20
        0.000000
  0
LINE
  8
0
 10
     -131.361416
 20
        0.000000
 30
        0.000000
 11
     -176.361416
 21
        0.000000
 31
        0.000000
  0
LINE
  8
0
 10
     -176.361416
 20
        0.000000
 30
        0.000000
 11
     -174.651985
 21
       -4.671811
 31
        0.000000
  0
LINE
  8
0
 10
     -130.361416
 20
       59.000000
 30
        0.000000
 11
     -177.361416
 21
       59.000000
 31
        0.000000
  0
LINE
  8
0
 10
     -177.861416
 20
       58.500000
 30
        0.000000
 11
     -129.861416
 21
       58.500000
 31
        0.000000
  0
LINE
  8
0
 10
     -130.361416
 20
       60.000000
 30
        0.000000
 11
     -177.361416
 21
       60.000000
 31
        0.000000
  0
LINE
  8
0
 10
     -178.861416
 20
       58.500000
 30
        0.000000
 11
     -178.861416
 21
        0.000000
 31
        0.000000
  0
LINE
  8
0
 10
     -177.861416
 20
       58.500000
 30
        0.000000
 11
     -177.861416
 21
        0.000000
 31
        0.000000
  0
ARC
  8
0
 10
     -176.361416
 20
        1.500000
 30
        0.000000
 40
        1.500000
 50
      180.000005
 51
      270.000000
  0
LINE
  8
0
 10
     -178.861416
 20
        0.000000
 30
        0.000000
 11
     -177.861416
 21
        0.000000
 31
        0.000000
  0
ARC
  8
0
 10
     -177.361416
 20
       58.500000
 30
        0.000000
 40
        0.500000
 50
       90.000000
 51
      180.000005
  0
ARC
  8
0
 10
     -177.361416
 20
       58.500000
 30
        0.000000
 40
        1.500000
 50
       90.000000
 51
      180.000005
  0
LINE
  8
0
 10
      -65.500000
 20
      153.103896
 30
        0.000000
 11
      -65.500000
 21
      103.103896
 31
        0.000000
  0
LINE
  8
0
 10
       65.500000
 20
      153.103896
 30
        0.000000
 11
       65.500000
 21
      103.103896
 31
        0.000000
  0
LINE
  8
0
 10
      -64.000000
 20
        0.000000
 30
        0.000000
 11
       64.000000
 21
        0.000000
 31
        0.000000
  0
LINE
  8
0
 10
      -65.500000
 20
       60.000000
 30
        0.000000
 11
       65.500000
 21
       60.000000
 31
        0.000000
  0
CIRCLE
  8
0
 10
       40.000000
 20
       53.000000
 30
        0.000000
 40
        1.200000
  0
CIRCLE
  8
0
 10
       40.000000
 20
       53.000000
 30
        0.000000
 40
        1.500000
  0
CIRCLE
  8
0
 10
       40.000000
 20
        9.000000
 30
        0.000000
 40
        1.200000
  0
CIRCLE
  8
0
 10
       40.000000
 20
        9.000000
 30
        0.000000
 40
        1.500000
  0
LINE
  8
0
 10
      -65.500000
 20
      103.103896
 30
        0.000000
 11
       65.500000
 21
      103.103896
 31
        0.000000
  0
LINE
  8
0
 10
      -68.000000
 20
       38.169748
 30
        0.000000
 11
      -68.000000
 21
        3.169733
 31
        0.000000
  0
LINE
  8
0
 10
     -131.861426
 20
       37.669745
 30
        0.000000
 11
     -131.861426
 21
        3.669733
 31
        0.000000
  0
LINE
  8
0
 10
     -151.028086
 20
       13.669723
 30
        0.000000
 11
     -151.028086
 21
       27.669761
 31
        0.000000
  0
LINE
  8
0
 10
     -154.861406
 20
       37.669745
 30
        0.000000
 11
     -154.861406
 21
        3.669733
 31
        0.000000
  0
LINE
  8
0
 10
     -135.028086
 20
       31.669725
 30
        0.000000
 11
     -135.028086
 21
        9.669753
 31
        0.000000
  0
LINE
  8
0
 10
     -128.861416
 20
       58.500000
 30
        0.000000
 11
     -128.861416
 21
        0.000000
 31
        0.000000
  0
LINE
  8
0
 10
     -129.861416
 20
       58.500000
 30
        0.000000
 11
     -129.861416
 21
        0.000000
 31
        0.000000
  0
LINE
  8
0
 10
      -65.500000
 20
       60.000000
 30
        0.000000
 11
      -65.500000
 21
        1.500000
 31
        0.000000
  0
LINE
  8
0
 10
      -50.000000
 20
       -5.000000
 30
        0.000000
 11
      -47.178985
 21
       -5.000000
 31
        0.000000
  0
ARC
  8
0
 10
     -131.361416
 20
        1.500000
 30
        0.000000
 40
        1.500000
 50
      270.000000
 51
      360.000000
  0
LINE
  8
0
 10
     -128.861416
 20
        0.000000
 30
        0.000000
 11
     -129.861416
 21
        0.000000
 31
        0.000000
  0
ARC
  8
0
 10
     -132.861426
 20
        3.669733
 30
        0.000000
 40
        1.000000
 50
      270.000000
 51
      360.000000
  0
LINE
  8
0
 10
     -153.861396
 20
        2.669733
 30
        0.000000
 11
     -132.861426
 21
        2.669733
 31
        0.000000
  0
ARC
  8
0
 10
     -153.861396
 20
        3.669733
 30
        0.000000
 40
        1.000000
 50
      180.000005
 51
      270.000000
  0
ARC
  8
0
 10
     -136.028086
 20
        9.669753
 30
        0.000000
 40
        1.000000
 50
      270.000000
 51
      360.000000
  0
LINE
  8
0
 10
     -147.194756
 20
        8.669753
 30
        0.000000
 11
     -136.028086
 21
        8.669753
 31
        0.000000
  0
LINE
  8
0
 10
     -139.520156
 20
       12.660813
 30
        0.000000
 11
     -139.520156
 21
       14.660813
 31
        0.000000
  0
LINE
  8
0
 10
     -143.520176
 20
       14.660813
 30
        0.000000
 11
     -143.520176
 21
       12.660813
 31
        0.000000
  0
LINE
  8
0
 10
     -143.520176
 20
       12.660813
 30
        0.000000
 11
     -139.520156
 21
       12.660813
 31
        0.000000
  0
LINE
  8
0
 10
     -147.531416
 20
       21.668263
 30
        0.000000
 11
     -147.531416
 21
       19.668253
 31
        0.000000
  0
LINE
  8
0
 10
     -143.531406
 20
       19.668253
 30
        0.000000
 11
     -143.531406
 21
       21.668263
 31
        0.000000
  0
LINE
  8
0
 10
     -143.531406
 20
       21.668263
 30
        0.000000
 11
     -147.531416
 21
       21.668263
 31
        0.000000
  0
LINE
  8
0
 10
     -147.531416
 20
       19.668253
 30
        0.000000
 11
     -143.531406
 21
       19.668253
 31
        0.000000
  0
LINE
  8
0
 10
     -139.520156
 20
       14.660813
 30
        0.000000
 11
     -143.520176
 21
       14.660813
 31
        0.000000
  0
LINE
  8
0
 10
     -147.194756
 20
        8.669753
 30
        0.000000
 11
     -151.028086
 21
       13.669723
 31
        0.000000
  0
LINE
  8
0
 10
     -171.361416
 20
       -5.000000
 30
        0.000000
 11
     -168.540400
 21
       -5.000000
 31
        0.000000
  0
ARC
  8
0
 10
     -174.182431
 20
       -4.500000
 30
        0.000000
 40
        0.500000
 50
      200.097738
 51
      270.000000
  0
LINE
  8
0
 10
     -171.361416
 20
       -5.000000
 30
        0.000000
 11
     -174.182431
 21
       -5.000000
 31
        0.000000
  0
LINE
  8
0
 10
     -166.361416
 20
        0.000000
 30
        0.000000
 11
     -168.070846
 21
       -4.671811
 31
        0.000000
  0
ARC
  8
0
 10
     -168.540400
 20
       -4.500000
 30
        0.000000
 40
        0.500000
 50
      270.000000
 51
      339.902267
  0
LINE
  8
0
 10
     -136.361416
 20
       -5.000000
 30
        0.000000
 11
     -133.540400
 21
       -5.000000
 31
        0.000000
  0
ARC
  8
0
 10
     -133.540400
 20
       -4.500000
 30
        0.000000
 40
        0.500000
 50
      270.000000
 51
      339.902267
  0
LINE
  8
0
 10
     -131.361416
 20
        0.000000
 30
        0.000000
 11
     -133.070846
 21
       -4.671811
 31
        0.000000
  0
ARC
  8
0
 10
     -139.182431
 20
       -4.500000
 30
        0.000000
 40
        0.500000
 50
      200.097738
 51
      270.000000
  0
LINE
  8
0
 10
     -141.361416
 20
        0.000000
 30
        0.000000
 11
     -139.651985
 21
       -4.671811
 31
        0.000000
  0
LINE
  8
0
 10
     -136.361416
 20
       -5.000000
 30
        0.000000
 11
     -139.182431
 21
       -5.000000
 31
        0.000000
  0
CIRCLE
  8
0
 10
      -60.500000
 20
       20.000000
 30
        0.000000
 40
        3.300000
  0
LINE
  8
0
 10
      -62.500000
 20
       20.000000
 30
        0.000000
 11
      -58.500000
 21
       20.000000
 31
        0.000000
  0
LINE
  8
0
 10
      -60.500000
 20
       18.000000
 30
        0.000000
 11
      -60.500000
 21
       22.000000
 31
        0.000000
  0
ARC
  8
0
 10
      -67.500000
 20
        3.169733
 30
        0.000000
 40
        0.500000
 50
      180.000005
 51
      270.000000
  0
LINE
  8
0
 10
      -67.500000
 20
        2.669733
 30
        0.000000
 11
      -65.500000
 21
        2.669733
 31
        0.000000
  0
ARC
  8
0
 10
      -64.000000
 20
        1.500000
 30
        0.000000
 40
        1.500000
 50
      180.000005
 51
      270.000000
  0
LINE
  8
0
 10
      -55.000000
 20
        0.000000
 30
        0.000000
 11
      -53.290569
 21
       -4.671811
 31
        0.000000
  0
LINE
  8
0
 10
      -50.000000
 20
       -5.000000
 30
        0.000000
 11
      -52.821015
 21
       -5.000000
 31
        0.000000
  0
ARC
  8
0
 10
      -52.821015
 20
       -4.500000
 30
        0.000000
 40
        0.500000
 50
      200.097738
 51
      270.000000
  0
CIRCLE
  8
0
 10
      -40.000000
 20
        9.000000
 30
        0.000000
 40
        1.500000
  0
CIRCLE
  8
0
 10
      -40.000000
 20
        9.000000
 30
        0.000000
 40
        1.200000
  0
LINE
  8
0
 10
      -45.000000
 20
        0.000000
 30
        0.000000
 11
      -46.709431
 21
       -4.671811
 31
        0.000000
  0
ARC
  8
0
 10
      -47.178985
 20
       -4.500000
 30
        0.000000
 40
        0.500000
 50
      270.000000
 51
      339.902267
  0
ARC
  8
0
 10
     -130.361416
 20
       58.500000
 30
        0.000000
 40
        1.500000
 50
        0.000000
 51
       90.000000
  0
ARC
  8
0
 10
     -132.861426
 20
       37.669745
 30
        0.000000
 40
        1.000000
 50
        0.000000
 51
       90.000000
  0
LINE
  8
0
 10
     -164.111426
 20
       34.399960
 30
        0.000000
 11
     -164.111426
 21
       29.599980
 31
        0.000000
  0
LINE
  8
0
 10
     -161.361426
 20
       33.749990
 30
        0.000000
 11
     -161.361426
 21
       30.250010
 31
        0.000000
  0
LINE
  8
0
 10
     -164.411426
 20
       29.299980
 30
        0.000000
 11
     -164.111426
 21
       29.599980
 31
        0.000000
  0
LINE
  8
6
 10
     -165.236426
 20
       33.199990
 30
        0.000000
 11
     -165.236426
 21
       32.699960
 31
        0.000000
  0
LINE
  8
6
 10
     -165.236426
 20
       33.199990
 30
        0.000000
 11
     -164.736436
 21
       33.699960
 31
        0.000000
  0
LINE
  8
0
 10
     -161.361426
 20
       30.250010
 30
        0.000000
 11
     -164.111426
 21
       30.250010
 31
        0.000000
  0
LINE
  8
6
 10
     -165.236426
 20
       30.299980
 30
        0.000000
 11
     -164.986436
 21
       29.299980
 31
        0.000000
  0
LINE
  8
6
 10
     -164.736436
 20
       33.699960
 30
        0.000000
 11
     -164.736436
 21
       32.199970
 31
        0.000000
  0
LINE
  8
6
 10
     -165.236426
 20
       32.699960
 30
        0.000000
 11
     -164.736436
 21
       32.199970
 31
        0.000000
  0
LINE
  8
0
 10
     -164.411426
 20
       34.699960
 30
        0.000000
 11
     -164.111426
 21
       34.399960
 31
        0.000000
  0
LINE
  8
0
 10
     -161.361426
 20
       33.749990
 30
        0.000000
 11
     -164.111426
 21
       33.749990
 31
        0.000000
  0
LINE
  8
0
 10
     -165.361416
 20
       35.699970
 30
        0.000000
 11
     -165.361416
 21
       34.699960
 31
        0.000000
  0
LINE
  8
0
 10
     -169.611426
 20
       34.399960
 30
        0.000000
 11
     -169.611426
 21
       29.599980
 31
        0.000000
  0
LINE
  8
0
 10
     -169.611426
 20
       29.599980
 30
        0.000000
 11
     -169.311426
 21
       29.299980
 31
        0.000000
  0
LINE
  8
6
 10
     -167.486436
 20
       32.699960
 30
        0.000000
 11
     -168.486436
 21
       32.699960
 31
        0.000000
  0
LINE
  8
6
 10
     -167.486436
 20
       33.199990
 30
        0.000000
 11
     -168.486436
 21
       33.199990
 31
        0.000000
  0
LINE
  8
6
 10
     -166.986426
 20
       33.699960
 30
        0.000000
 11
     -168.986426
 21
       33.699960
 31
        0.000000
  0
LINE
  8
6
 10
     -167.486436
 20
       30.299980
 30
        0.000000
 11
     -168.486436
 21
       30.299980
 31
        0.000000
  0
LINE
  8
6
 10
     -166.986426
 20
       32.199970
 30
        0.000000
 11
     -168.986426
 21
       32.199970
 31
        0.000000
  0
LINE
  8
6
 10
     -168.486436
 20
       33.199990
 30
        0.000000
 11
     -168.486436
 21
       32.699960
 31
        0.000000
  0
LINE
  8
6
 10
     -168.486436
 20
       33.199990
 30
        0.000000
 11
     -168.986426
 21
       33.699960
 31
        0.000000
  0
LINE
  8
6
 10
     -168.486436
 20
       30.299980
 30
        0.000000
 11
     -168.736426
 21
       29.299980
 31
        0.000000
  0
LINE
  8
6
 10
     -168.986426
 20
       33.699960
 30
        0.000000
 11
     -168.986426
 21
       32.199970
 31
        0.000000
  0
LINE
  8
6
 10
     -168.486436
 20
       32.699960
 30
        0.000000
 11
     -168.986426
 21
       32.199970
 31
        0.000000
  0
LINE
  8
6
 10
     -166.236426
 20
       33.199990
 30
        0.000000
 11
     -166.736436
 21
       33.699960
 31
        0.000000
  0
LINE
  8
6
 10
     -167.486436
 20
       33.199990
 30
        0.000000
 11
     -167.486436
 21
       32.699960
 31
        0.000000
  0
LINE
  8
6
 10
     -167.486436
 20
       33.199990
 30
        0.000000
 11
     -166.986426
 21
       33.699960
 31
        0.000000
  0
LINE
  8
6
 10
     -166.236426
 20
       33.199990
 30
        0.000000
 11
     -166.236426
 21
       32.699960
 31
        0.000000
  0
LINE
  8
6
 10
     -166.236426
 20
       30.299980
 30
        0.000000
 11
     -166.486416
 21
       29.299980
 31
        0.000000
  0
LINE
  8
6
 10
     -167.486436
 20
       30.299980
 30
        0.000000
 11
     -167.236426
 21
       29.299980
 31
        0.000000
  0
LINE
  8
6
 10
     -166.986426
 20
       33.699960
 30
        0.000000
 11
     -166.986426
 21
       32.199970
 31
        0.000000
  0
LINE
  8
6
 10
     -166.736436
 20
       33.699960
 30
        0.000000
 11
     -166.736436
 21
       32.199970
 31
        0.000000
  0
LINE
  8
6
 10
     -167.486436
 20
       32.699960
 30
        0.000000
 11
     -166.986426
 21
       32.199970
 31
        0.000000
  0
LINE
  8
6
 10
     -166.236426
 20
       32.699960
 30
        0.000000
 11
     -166.736436
 21
       32.199970
 31
        0.000000
  0
LINE
  8
0
 10
     -169.311426
 20
       34.699960
 30
        0.000000
 11
     -169.611426
 21
       34.399960
 31
        0.000000
  0
LINE
  8
0
 10
     -168.361416
 20
       35.699970
 30
        0.000000
 11
     -168.361416
 21
       34.699960
 31
        0.000000
  0
LINE
  8
0
 10
     -164.411426
 20
       34.699960
 30
        0.000000
 11
     -169.311426
 21
       34.699960
 31
        0.000000
  0
LINE
  8
0
 10
     -164.411426
 20
       29.299980
 30
        0.000000
 11
     -169.311426
 21
       29.299980
 31
        0.000000
  0
LINE
  8
6
 10
     -164.736436
 20
       33.699960
 30
        0.000000
 11
     -166.736436
 21
       33.699960
 31
        0.000000
  0
LINE
  8
6
 10
     -165.236426
 20
       32.699960
 30
        0.000000
 11
     -166.236426
 21
       32.699960
 31
        0.000000
  0
LINE
  8
6
 10
     -165.236426
 20
       33.199990
 30
        0.000000
 11
     -166.236426
 21
       33.199990
 31
        0.000000
  0
LINE
  8
6
 10
     -164.736436
 20
       32.199970
 30
        0.000000
 11
     -166.736436
 21
       32.199970
 31
        0.000000
  0
LINE
  8
6
 10
     -165.236426
 20
       30.299980
 30
        0.000000
 11
     -166.236426
 21
       30.299980
 31
        0.000000
  0
LINE
  8
0
 10
     -165.361416
 20
       35.699970
 30
        0.000000
 11
     -168.361416
 21
       35.699970
 31
        0.000000
  0
LINE
  8
0
 10
     -172.361406
 20
       33.749990
 30
        0.000000
 11
     -172.361406
 21
       30.250010
 31
        0.000000
  0
LINE
  8
0
 10
     -169.611426
 20
       30.250010
 30
        0.000000
 11
     -172.361406
 21
       30.250010
 31
        0.000000
  0
LINE
  8
0
 10
     -169.611426
 20
       33.749990
 30
        0.000000
 11
     -172.361406
 21
       33.749990
 31
        0.000000
  0
LINE
  8
0
 10
     -169.611426
 20
       48.749990
 30
        0.000000
 11
     -172.361406
 21
       48.749990
 31
        0.000000
  0
LINE
  8
0
 10
     -169.611426
 20
       45.250010
 30
        0.000000
 11
     -172.361406
 21
       45.250010
 31
        0.000000
  0
LINE
  8
0
 10
     -172.361406
 20
       48.749990
 30
        0.000000
 11
     -172.361406
 21
       45.250010
 31
        0.000000
  0
LINE
  8
0
 10
     -165.361416
 20
       50.699970
 30
        0.000000
 11
     -165.361416
 21
       49.699960
 31
        0.000000
  0
LINE
  8
0
 10
     -161.361426
 20
       48.749990
 30
        0.000000
 11
     -164.111426
 21
       48.749990
 31
        0.000000
  0
LINE
  8
0
 10
     -164.411426
 20
       49.699960
 30
        0.000000
 11
     -164.111426
 21
       49.399960
 31
        0.000000
  0
LINE
  8
6
 10
     -165.236426
 20
       47.699960
 30
        0.000000
 11
     -164.736436
 21
       47.199970
 31
        0.000000
  0
LINE
  8
6
 10
     -164.736436
 20
       48.699960
 30
        0.000000
 11
     -164.736436
 21
       47.199970
 31
        0.000000
  0
LINE
  8
6
 10
     -165.236426
 20
       45.299980
 30
        0.000000
 11
     -164.986436
 21
       44.299980
 31
        0.000000
  0
LINE
  8
0
 10
     -161.361426
 20
       45.250010
 30
        0.000000
 11
     -164.111426
 21
       45.250010
 31
        0.000000
  0
LINE
  8
6
 10
     -165.236426
 20
       48.199990
 30
        0.000000
 11
     -164.736436
 21
       48.699960
 31
        0.000000
  0
LINE
  8
6
 10
     -165.236426
 20
       48.199990
 30
        0.000000
 11
     -165.236426
 21
       47.699960
 31
        0.000000
  0
LINE
  8
0
 10
     -164.411426
 20
       44.299980
 30
        0.000000
 11
     -164.111426
 21
       44.599980
 31
        0.000000
  0
LINE
  8
0
 10
     -161.361426
 20
       48.749990
 30
        0.000000
 11
     -161.361426
 21
       45.250010
 31
        0.000000
  0
LINE
  8
0
 10
     -164.111426
 20
       49.399960
 30
        0.000000
 11
     -164.111426
 21
       44.599980
 31
        0.000000
  0
LINE
  8
0
 10
     -168.361416
 20
       50.699970
 30
        0.000000
 11
     -168.361416
 21
       49.699960
 31
        0.000000
  0
LINE
  8
0
 10
     -169.311426
 20
       49.699960
 30
        0.000000
 11
     -169.611426
 21
       49.399960
 31
        0.000000
  0
LINE
  8
6
 10
     -166.236426
 20
       47.699960
 30
        0.000000
 11
     -166.736436
 21
       47.199970
 31
        0.000000
  0
LINE
  8
6
 10
     -167.486436
 20
       47.699960
 30
        0.000000
 11
     -166.986426
 21
       47.199970
 31
        0.000000
  0
LINE
  8
6
 10
     -166.736436
 20
       48.699960
 30
        0.000000
 11
     -166.736436
 21
       47.199970
 31
        0.000000
  0
LINE
  8
6
 10
     -166.986426
 20
       48.699960
 30
        0.000000
 11
     -166.986426
 21
       47.199970
 31
        0.000000
  0
LINE
  8
6
 10
     -167.486436
 20
       45.299980
 30
        0.000000
 11
     -167.236426
 21
       44.299980
 31
        0.000000
  0
LINE
  8
6
 10
     -166.236426
 20
       45.299980
 30
        0.000000
 11
     -166.486416
 21
       44.299980
 31
        0.000000
  0
LINE
  8
6
 10
     -166.236426
 20
       48.199990
 30
        0.000000
 11
     -166.236426
 21
       47.699960
 31
        0.000000
  0
LINE
  8
6
 10
     -167.486436
 20
       48.199990
 30
        0.000000
 11
     -166.986426
 21
       48.699960
 31
        0.000000
  0
LINE
  8
6
 10
     -167.486436
 20
       48.199990
 30
        0.000000
 11
     -167.486436
 21
       47.699960
 31
        0.000000
  0
LINE
  8
6
 10
     -166.236426
 20
       48.199990
 30
        0.000000
 11
     -166.736436
 21
       48.699960
 31
        0.000000
  0
LINE
  8
6
 10
     -168.486436
 20
       47.699960
 30
        0.000000
 11
     -168.986426
 21
       47.199970
 31
        0.000000
  0
LINE
  8
6
 10
     -168.986426
 20
       48.699960
 30
        0.000000
 11
     -168.986426
 21
       47.199970
 31
        0.000000
  0
LINE
  8
6
 10
     -168.486436
 20
       45.299980
 30
        0.000000
 11
     -168.736426
 21
       44.299980
 31
        0.000000
  0
LINE
  8
6
 10
     -168.486436
 20
       48.199990
 30
        0.000000
 11
     -168.986426
 21
       48.699960
 31
        0.000000
  0
LINE
  8
6
 10
     -168.486436
 20
       48.199990
 30
        0.000000
 11
     -168.486436
 21
       47.699960
 31
        0.000000
  0
LINE
  8
6
 10
     -166.986426
 20
       47.199970
 30
        0.000000
 11
     -168.986426
 21
       47.199970
 31
        0.000000
  0
LINE
  8
6
 10
     -167.486436
 20
       45.299980
 30
        0.000000
 11
     -168.486436
 21
       45.299980
 31
        0.000000
  0
LINE
  8
6
 10
     -166.986426
 20
       48.699960
 30
        0.000000
 11
     -168.986426
 21
       48.699960
 31
        0.000000
  0
LINE
  8
6
 10
     -167.486436
 20
       48.199990
 30
        0.000000
 11
     -168.486436
 21
       48.199990
 31
        0.000000
  0
LINE
  8
6
 10
     -167.486436
 20
       47.699960
 30
        0.000000
 11
     -168.486436
 21
       47.699960
 31
        0.000000
  0
LINE
  8
0
 10
     -169.611426
 20
       44.599980
 30
        0.000000
 11
     -169.311426
 21
       44.299980
 31
        0.000000
  0
LINE
  8
0
 10
     -169.611426
 20
       49.399960
 30
        0.000000
 11
     -169.611426
 21
       44.599980
 31
        0.000000
  0
LINE
  8
0
 10
     -165.361416
 20
       50.699970
 30
        0.000000
 11
     -168.361416
 21
       50.699970
 31
        0.000000
  0
LINE
  8
6
 10
     -165.236426
 20
       45.299980
 30
        0.000000
 11
     -166.236426
 21
       45.299980
 31
        0.000000
  0
LINE
  8
6
 10
     -164.736436
 20
       47.199970
 30
        0.000000
 11
     -166.736436
 21
       47.199970
 31
        0.000000
  0
LINE
  8
6
 10
     -165.236426
 20
       48.199990
 30
        0.000000
 11
     -166.236426
 21
       48.199990
 31
        0.000000
  0
LINE
  8
6
 10
     -165.236426
 20
       47.699960
 30
        0.000000
 11
     -166.236426
 21
       47.699960
 31
        0.000000
  0
LINE
  8
6
 10
     -164.736436
 20
       48.699960
 30
        0.000000
 11
     -166.736436
 21
       48.699960
 31
        0.000000
  0
LINE
  8
0
 10
     -164.411426
 20
       44.299980
 30
        0.000000
 11
     -169.311426
 21
       44.299980
 31
        0.000000
  0
LINE
  8
0
 10
     -164.411426
 20
       49.699960
 30
        0.000000
 11
     -169.311426
 21
       49.699960
 31
        0.000000
  0
TEXT
  8
4
 10
     -170.721246
 20
       37.543410
 30
        0.000000
 40
        1.875000
  1
ＬＡＭＰ　２
 50
        0.000000
 41
        1.000000
 51
        0.000000
  7
BIGFONT
  0
TEXT
  8
4
 10
     -170.721246
 20
       53.021062
 30
        0.000000
 40
        1.875000
  1
ＬＡＭＰ　１
 50
        0.000000
 41
        1.000000
 51
        0.000000
  7
BIGFONT
  0
LINE
  8
0
 10
     -148.172121
 20
       48.555257
 30
        0.000000
 11
     -150.672121
 21
       48.555257
 31
        0.000000
  0
LINE
  8
0
 10
     -148.172121
 20
       45.598709
 30
        0.000000
 11
     -150.672121
 21
       45.598709
 31
        0.000000
  0
LINE
  8
0
 10
     -150.672121
 20
       48.555257
 30
        0.000000
 11
     -150.672121
 21
       45.598709
 31
        0.000000
  0
LINE
  8
0
 10
     -137.550731
 20
       45.598709
 30
        0.000000
 11
     -135.050731
 21
       45.598709
 31
        0.000000
  0
LINE
  8
0
 10
     -137.550731
 20
       48.555257
 30
        0.000000
 11
     -135.050731
 21
       48.555257
 31
        0.000000
  0
LINE
  8
0
 10
     -137.550731
 20
       49.494611
 30
        0.000000
 11
     -137.550731
 21
       44.694621
 31
        0.000000
  0
LINE
  8
0
 10
     -148.172121
 20
       49.494611
 30
        0.000000
 11
     -148.172121
 21
       44.694621
 31
        0.000000
  0
LINE
  8
6
 10
     -143.040889
 20
       48.794601
 30
        0.000000
 11
     -145.040889
 21
       48.794601
 31
        0.000000
  0
LINE
  8
6
 10
     -143.540879
 20
       48.294631
 30
        0.000000
 11
     -143.040889
 21
       48.794601
 31
        0.000000
  0
LINE
  8
6
 10
     -143.040889
 20
       47.294611
 30
        0.000000
 11
     -145.040889
 21
       47.294611
 31
        0.000000
  0
LINE
  8
6
 10
     -143.540879
 20
       45.394621
 30
        0.000000
 11
     -143.290889
 21
       44.394621
 31
        0.000000
  0
LINE
  8
6
 10
     -143.540879
 20
       47.794601
 30
        0.000000
 11
     -143.040889
 21
       47.294611
 31
        0.000000
  0
LINE
  8
0
 10
     -137.850731
 20
       44.394621
 30
        0.000000
 11
     -147.872121
 21
       44.394621
 31
        0.000000
  0
LINE
  8
0
 10
     -148.172121
 20
       44.694621
 30
        0.000000
 11
     -147.872121
 21
       44.394621
 31
        0.000000
  0
LINE
  8
6
 10
     -145.790889
 20
       48.294631
 30
        0.000000
 11
     -145.790889
 21
       47.794601
 31
        0.000000
  0
LINE
  8
6
 10
     -145.790889
 20
       48.294631
 30
        0.000000
 11
     -145.290879
 21
       48.794601
 31
        0.000000
  0
LINE
  8
6
 10
     -145.290879
 20
       48.794601
 30
        0.000000
 11
     -145.290879
 21
       47.294611
 31
        0.000000
  0
LINE
  8
6
 10
     -145.790889
 20
       47.794601
 30
        0.000000
 11
     -145.290879
 21
       47.294611
 31
        0.000000
  0
LINE
  8
6
 10
     -145.790889
 20
       47.794601
 30
        0.000000
 11
     -146.790889
 21
       47.794601
 31
        0.000000
  0
LINE
  8
6
 10
     -145.790889
 20
       48.294631
 30
        0.000000
 11
     -146.790889
 21
       48.294631
 31
        0.000000
  0
LINE
  8
6
 10
     -145.290879
 20
       48.794601
 30
        0.000000
 11
     -147.290879
 21
       48.794601
 31
        0.000000
  0
LINE
  8
6
 10
     -145.290879
 20
       47.294611
 30
        0.000000
 11
     -147.290879
 21
       47.294611
 31
        0.000000
  0
LINE
  8
6
 10
     -146.790889
 20
       48.294631
 30
        0.000000
 11
     -146.790889
 21
       47.794601
 31
        0.000000
  0
LINE
  8
6
 10
     -146.790889
 20
       48.294631
 30
        0.000000
 11
     -147.290879
 21
       48.794601
 31
        0.000000
  0
LINE
  8
6
 10
     -147.290879
 20
       48.794601
 30
        0.000000
 11
     -147.290879
 21
       47.294611
 31
        0.000000
  0
LINE
  8
6
 10
     -146.790889
 20
       47.794601
 30
        0.000000
 11
     -147.290879
 21
       47.294611
 31
        0.000000
  0
LINE
  8
6
 10
     -145.790889
 20
       45.394621
 30
        0.000000
 11
     -146.790889
 21
       45.394621
 31
        0.000000
  0
LINE
  8
6
 10
     -146.790889
 20
       45.394621
 30
        0.000000
 11
     -147.040879
 21
       44.394621
 31
        0.000000
  0
LINE
  8
6
 10
     -145.790889
 20
       45.394621
 30
        0.000000
 11
     -145.540879
 21
       44.394621
 31
        0.000000
  0
LINE
  8
6
 10
     -144.540879
 20
       48.294631
 30
        0.000000
 11
     -145.040889
 21
       48.794601
 31
        0.000000
  0
LINE
  8
6
 10
     -144.540879
 20
       48.294631
 30
        0.000000
 11
     -144.540879
 21
       47.794601
 31
        0.000000
  0
LINE
  8
6
 10
     -143.540879
 20
       48.294631
 30
        0.000000
 11
     -143.540879
 21
       47.794601
 31
        0.000000
  0
LINE
  8
6
 10
     -143.540879
 20
       47.794601
 30
        0.000000
 11
     -144.540879
 21
       47.794601
 31
        0.000000
  0
LINE
  8
6
 10
     -143.540879
 20
       48.294631
 30
        0.000000
 11
     -144.540879
 21
       48.294631
 31
        0.000000
  0
LINE
  8
6
 10
     -144.540879
 20
       45.394621
 30
        0.000000
 11
     -144.790869
 21
       44.394621
 31
        0.000000
  0
LINE
  8
6
 10
     -143.540879
 20
       45.394621
 30
        0.000000
 11
     -144.540879
 21
       45.394621
 31
        0.000000
  0
LINE
  8
6
 10
     -145.040889
 20
       48.794601
 30
        0.000000
 11
     -145.040889
 21
       47.294611
 31
        0.000000
  0
LINE
  8
6
 10
     -144.540879
 20
       47.794601
 30
        0.000000
 11
     -145.040889
 21
       47.294611
 31
        0.000000
  0
LINE
  8
0
 10
     -137.850731
 20
       44.394621
 30
        0.000000
 11
     -137.550731
 21
       44.694621
 31
        0.000000
  0
LINE
  8
6
 10
     -139.931962
 20
       48.294631
 30
        0.000000
 11
     -139.931962
 21
       47.794601
 31
        0.000000
  0
LINE
  8
6
 10
     -139.931962
 20
       48.294631
 30
        0.000000
 11
     -140.431972
 21
       48.794601
 31
        0.000000
  0
LINE
  8
6
 10
     -140.431972
 20
       48.794601
 30
        0.000000
 11
     -140.431972
 21
       47.294611
 31
        0.000000
  0
LINE
  8
6
 10
     -139.931962
 20
       47.794601
 30
        0.000000
 11
     -140.431972
 21
       47.294611
 31
        0.000000
  0
LINE
  8
6
 10
     -139.931962
 20
       47.794601
 30
        0.000000
 11
     -138.931962
 21
       47.794601
 31
        0.000000
  0
LINE
  8
6
 10
     -139.931962
 20
       48.294631
 30
        0.000000
 11
     -138.931962
 21
       48.294631
 31
        0.000000
  0
LINE
  8
6
 10
     -140.431972
 20
       48.794601
 30
        0.000000
 11
     -138.431972
 21
       48.794601
 31
        0.000000
  0
LINE
  8
6
 10
     -140.431972
 20
       47.294611
 30
        0.000000
 11
     -138.431972
 21
       47.294611
 31
        0.000000
  0
LINE
  8
6
 10
     -138.931962
 20
       48.294631
 30
        0.000000
 11
     -138.931962
 21
       47.794601
 31
        0.000000
  0
LINE
  8
6
 10
     -138.931962
 20
       48.294631
 30
        0.000000
 11
     -138.431972
 21
       48.794601
 31
        0.000000
  0
LINE
  8
6
 10
     -138.431972
 20
       48.794601
 30
        0.000000
 11
     -138.431972
 21
       47.294611
 31
        0.000000
  0
LINE
  8
6
 10
     -138.931962
 20
       47.794601
 30
        0.000000
 11
     -138.431972
 21
       47.294611
 31
        0.000000
  0
LINE
  8
6
 10
     -139.931962
 20
       45.394621
 30
        0.000000
 11
     -138.931962
 21
       45.394621
 31
        0.000000
  0
LINE
  8
6
 10
     -138.931962
 20
       45.394621
 30
        0.000000
 11
     -138.681972
 21
       44.394621
 31
        0.000000
  0
LINE
  8
6
 10
     -139.931962
 20
       45.394621
 30
        0.000000
 11
     -140.181972
 21
       44.394621
 31
        0.000000
  0
LINE
  8
6
 10
     -142.681962
 20
       48.794601
 30
        0.000000
 11
     -140.681962
 21
       48.794601
 31
        0.000000
  0
LINE
  8
6
 10
     -141.181972
 20
       48.294631
 30
        0.000000
 11
     -140.681962
 21
       48.794601
 31
        0.000000
  0
LINE
  8
6
 10
     -141.181972
 20
       48.294631
 30
        0.000000
 11
     -141.181972
 21
       47.794601
 31
        0.000000
  0
LINE
  8
6
 10
     -142.181972
 20
       48.294631
 30
        0.000000
 11
     -142.181972
 21
       47.794601
 31
        0.000000
  0
LINE
  8
6
 10
     -142.181972
 20
       47.794601
 30
        0.000000
 11
     -141.181972
 21
       47.794601
 31
        0.000000
  0
LINE
  8
6
 10
     -142.181972
 20
       48.294631
 30
        0.000000
 11
     -141.181972
 21
       48.294631
 31
        0.000000
  0
LINE
  8
6
 10
     -142.181972
 20
       48.294631
 30
        0.000000
 11
     -142.681962
 21
       48.794601
 31
        0.000000
  0
LINE
  8
6
 10
     -142.681962
 20
       47.294611
 30
        0.000000
 11
     -140.681962
 21
       47.294611
 31
        0.000000
  0
LINE
  8
6
 10
     -141.181972
 20
       45.394621
 30
        0.000000
 11
     -140.931982
 21
       44.394621
 31
        0.000000
  0
LINE
  8
6
 10
     -142.181972
 20
       45.394621
 30
        0.000000
 11
     -141.181972
 21
       45.394621
 31
        0.000000
  0
LINE
  8
6
 10
     -142.181972
 20
       45.394621
 30
        0.000000
 11
     -142.431962
 21
       44.394621
 31
        0.000000
  0
LINE
  8
6
 10
     -140.681962
 20
       48.794601
 30
        0.000000
 11
     -140.681962
 21
       47.294611
 31
        0.000000
  0
LINE
  8
6
 10
     -142.681962
 20
       48.794601
 30
        0.000000
 11
     -142.681962
 21
       47.294611
 31
        0.000000
  0
LINE
  8
6
 10
     -141.181972
 20
       47.794601
 30
        0.000000
 11
     -140.681962
 21
       47.294611
 31
        0.000000
  0
LINE
  8
6
 10
     -142.181972
 20
       47.794601
 30
        0.000000
 11
     -142.681962
 21
       47.294611
 31
        0.000000
  0
LINE
  8
6
 10
     -143.040889
 20
       48.794601
 30
        0.000000
 11
     -143.040889
 21
       47.294611
 31
        0.000000
  0
LINE
  8
0
 10
     -141.361416
 20
       50.794621
 30
        0.000000
 11
     -144.361416
 21
       50.794621
 31
        0.000000
  0
LINE
  8
0
 10
     -137.850731
 20
       49.794611
 30
        0.000000
 11
     -147.872121
 21
       49.794611
 31
        0.000000
  0
LINE
  8
0
 10
     -148.172121
 20
       49.494611
 30
        0.000000
 11
     -147.872121
 21
       49.794611
 31
        0.000000
  0
LINE
  8
0
 10
     -144.361416
 20
       50.794621
 30
        0.000000
 11
     -144.361416
 21
       49.794611
 31
        0.000000
  0
LINE
  8
0
 10
     -137.850731
 20
       49.794611
 30
        0.000000
 11
     -137.550731
 21
       49.494611
 31
        0.000000
  0
LINE
  8
0
 10
     -141.361416
 20
       50.794621
 30
        0.000000
 11
     -141.361416
 21
       49.794611
 31
        0.000000
  0
LINE
  8
0
 10
     -135.050731
 20
       48.555257
 30
        0.000000
 11
     -135.050731
 21
       45.598709
 31
        0.000000
  0
TEXT
  8
4
 10
     -148.975295
 20
       53.021062
 30
        0.000000
 40
        1.875000
  1
ＥＸＴ　ＣＯＮＴ
 50
        0.000000
 41
        1.000000
 51
        0.000000
  7
BIGFONT
  0
TEXT
  8
4
 10
     -148.067581
 20
       40.247734
 30
        0.000000
 40
        1.875000
  1
ＡＣ１００Ｖ
 50
        0.000000
 41
        1.000000
 51
        0.000000
  7
BIGFONT
  0
LINE
  8
0
 10
     -132.861426
 20
       38.669748
 30
        0.000000
 11
     -153.861396
 21
       38.669748
 31
        0.000000
  0
ARC
  8
0
 10
     -153.861396
 20
       37.669745
 30
        0.000000
 40
        1.000000
 50
       90.000000
 51
      180.000005
  0
LINE
  8
0
 10
     -139.520156
 20
       26.660800
 30
        0.000000
 11
     -139.520156
 21
       28.660807
 31
        0.000000
  0
LINE
  8
0
 10
     -143.520176
 20
       28.660807
 30
        0.000000
 11
     -143.520176
 21
       26.660800
 31
        0.000000
  0
LINE
  8
0
 10
     -139.520156
 20
       28.660807
 30
        0.000000
 11
     -143.520176
 21
       28.660807
 31
        0.000000
  0
LINE
  8
0
 10
     -143.520176
 20
       26.660800
 30
        0.000000
 11
     -139.520156
 21
       26.660800
 31
        0.000000
  0
ARC
  8
0
 10
     -136.028086
 20
       31.669725
 30
        0.000000
 40
        1.000000
 50
        0.000000
 51
       90.000000
  0
LINE
  8
0
 10
     -147.194756
 20
       32.669728
 30
        0.000000
 11
     -136.028086
 21
       32.669728
 31
        0.000000
  0
LINE
  8
0
 10
     -151.028086
 20
       27.669761
 30
        0.000000
 11
     -147.194756
 21
       32.669728
 31
        0.000000
  0
ARC
  8
0
 10
     -130.361416
 20
       58.500000
 30
        0.000000
 40
        0.500000
 50
        0.000000
 51
       90.000000
  0
LINE
  8
0
 10
      -75.500081
 20
       34.675025
 30
        0.000000
 11
      -68.000000
 21
       34.675025
 31
        0.000000
  0
LINE
  8
0
 10
      -65.500000
 20
       44.324975
 30
        0.000000
 11
      -75.500081
 21
       44.325205
 31
        0.000000
  0
LINE
  8
0
 10
      -75.500081
 20
       49.675025
 30
        0.000000
 11
      -65.500081
 21
       49.675025
 31
        0.000000
  0
LINE
  8
0
 10
      -68.000000
 20
       29.325033
 30
        0.000000
 11
      -75.500081
 21
       29.325205
 31
        0.000000
  0
LINE
  8
0
 10
      -74.307101
 20
       35.675025
 30
        0.000000
 11
      -73.307091
 21
       34.675025
 31
        0.000000
  0
LINE
  8
0
 10
      -74.307101
 20
       50.675025
 30
        0.000000
 11
      -73.307091
 21
       49.675025
 31
        0.000000
  0
LINE
  8
0
 10
      -75.500081
 20
       49.675025
 30
        0.000000
 11
      -75.500081
 21
       44.324975
 31
        0.000000
  0
LINE
  8
0
 10
      -75.500081
 20
       34.675025
 30
        0.000000
 11
      -74.307101
 21
       35.675025
 31
        0.000000
  0
LINE
  8
0
 10
      -75.500081
 20
       49.675025
 30
        0.000000
 11
      -74.307101
 21
       50.675025
 31
        0.000000
  0
LINE
  8
0
 10
      -75.500081
 20
       34.675025
 30
        0.000000
 11
      -75.500081
 21
       29.324975
 31
        0.000000
  0
LINE
  8
0
 10
      -71.642561
 20
       45.225015
 30
        0.000000
 11
      -65.500081
 21
       45.225015
 31
        0.000000
  0
LINE
  8
0
 10
      -71.642561
 20
       48.725005
 30
        0.000000
 11
      -65.500081
 21
       48.725005
 31
        0.000000
  0
LINE
  8
0
 10
      -71.642561
 20
       30.225015
 30
        0.000000
 11
      -68.000000
 21
       30.225015
 31
        0.000000
  0
LINE
  8
0
 10
      -71.642561
 20
       33.725005
 30
        0.000000
 11
      -68.000000
 21
       33.725005
 31
        0.000000
  0
LINE
  8
0
 10
      -71.642561
 20
       45.225015
 30
        0.000000
 11
      -71.642561
 21
       48.725005
 31
        0.000000
  0
LINE
  8
0
 10
      -71.642561
 20
       30.225015
 30
        0.000000
 11
      -71.642561
 21
       33.725005
 31
        0.000000
  0
ARC
  8
0
 10
      -67.500000
 20
       38.169748
 30
        0.000000
 40
        0.500000
 50
       90.000000
 51
      180.000005
  0
LINE
  8
0
 10
      -65.500000
 20
       38.669748
 30
        0.000000
 11
      -67.500000
 21
       38.669748
 31
        0.000000
  0
LINE
  8
0
 10
      -75.500081
 20
      143.519812
 30
        0.000000
 11
      -65.500000
 21
      143.519812
 31
        0.000000
  0
LINE
  8
0
 10
      -75.500081
 20
      142.269802
 30
        0.000000
 11
      -73.307091
 21
      142.269802
 31
        0.000000
  0
LINE
  8
0
 10
      -75.500081
 20
      139.269802
 30
        0.000000
 11
      -73.307091
 21
      139.269802
 31
        0.000000
  0
LINE
  8
0
 10
      -75.500081
 20
      138.019812
 30
        0.000000
 11
      -65.500000
 21
      138.019812
 31
        0.000000
  0
LINE
  8
0
 10
      -75.500081
 20
      125.403896
 30
        0.000000
 11
      -65.500000
 21
      125.403896
 31
        0.000000
  0
LINE
  8
0
 10
      -74.307101
 20
      139.269802
 30
        0.000000
 11
      -74.307101
 21
      142.269802
 31
        0.000000
  0
LINE
  8
0
 10
      -75.500081
 20
      138.019812
 30
        0.000000
 11
      -75.500081
 21
      143.519812
 31
        0.000000
  0
LINE
  8
0
 10
      -67.097732
 20
      135.269832
 30
        0.000000
 11
      -65.500000
 21
      136.200012
 31
        0.000000
  0
LINE
  8
0
 10
      -67.097732
 20
      146.269792
 30
        0.000000
 11
      -65.500000
 21
      145.339613
 31
        0.000000
  0
LINE
  8
0
 10
      -71.642561
 20
      143.519812
 30
        0.000000
 11
      -67.097732
 21
      146.269792
 31
        0.000000
  0
LINE
  8
0
 10
      -73.307091
 20
      139.269802
 30
        0.000000
 11
      -73.307091
 21
      142.269802
 31
        0.000000
  0
LINE
  8
0
 10
      -71.642561
 20
      138.019812
 30
        0.000000
 11
      -67.097732
 21
      135.269832
 31
        0.000000
  0
LINE
  8
0
 10
      -71.642561
 20
      125.403896
 30
        0.000000
 11
      -67.097732
 21
      128.153876
 31
        0.000000
  0
LINE
  8
0
 10
      -67.097732
 20
      128.153876
 30
        0.000000
 11
      -65.500000
 21
      126.496174
 31
        0.000000
  0
ARC
  8
0
 10
      -67.500000
 20
      128.603876
 30
        0.000000
 40
        0.500000
 50
       90.000000
 51
      180.000005
  0
LINE
  8
0
 10
      -67.500000
 20
      129.103876
 30
        0.000000
 11
      -65.500000
 21
      129.103876
 31
        0.000000
  0
LINE
  8
0
 10
      -68.000000
 20
      127.607932
 30
        0.000000
 11
      -68.000000
 21
      128.603876
 31
        0.000000
  0
LINE
  8
0
 10
      -75.500081
 20
      120.103886
 30
        0.000000
 11
      -65.500000
 21
      120.103886
 31
        0.000000
  0
LINE
  8
0
 10
      -75.500081
 20
      117.103886
 30
        0.000000
 11
      -65.500000
 21
      117.103886
 31
        0.000000
  0
LINE
  8
0
 10
      -75.500081
 20
      111.803896
 30
        0.000000
 11
      -65.500000
 21
      111.803896
 31
        0.000000
  0
LINE
  8
0
 10
      -74.307101
 20
      117.103886
 30
        0.000000
 11
      -74.307101
 21
      120.103886
 31
        0.000000
  0
ARC
  8
0
 10
      -60.500000
 20
      104.848614
 30
        0.000000
 40
        3.744889
 50
      207.768041
 51
      332.231964
  0
LINE
  8
0
 10
      -71.642561
 20
      111.803896
 30
        0.000000
 11
      -67.097732
 21
      109.053916
 31
        0.000000
  0
LINE
  8
0
 10
      -67.097732
 20
      109.053916
 30
        0.000000
 11
      -65.500000
 21
      110.711617
 31
        0.000000
  0
LINE
  8
0
 10
      -73.307091
 20
      117.103886
 30
        0.000000
 11
      -73.307091
 21
      120.103886
 31
        0.000000
  0
ARC
  8
0
 10
      -67.500000
 20
      106.603906
 30
        0.000000
 40
        0.500000
 50
      180.000005
 51
      270.000000
  0
LINE
  8
0
 10
      -67.500000
 20
      106.103906
 30
        0.000000
 11
      -65.500000
 21
      106.103906
 31
        0.000000
  0
LINE
  8
0
 10
      -68.000000
 20
      106.603906
 30
        0.000000
 11
      -68.000000
 21
      109.599859
 31
        0.000000
  0
LINE
  8
0
 10
      -75.500081
 20
      111.803896
 30
        0.000000
 11
      -75.500081
 21
      125.403896
 31
        0.000000
  0
CIRCLE
  8
0
 10
       -4.500000
 20
       52.000000
 30
        0.000000
 40
        1.000000
  0
CIRCLE
  8
0
 10
      -28.500000
 20
       52.000000
 30
        0.000000
 40
        1.000000
  0
CIRCLE
  8
0
 10
      -30.000000
 20
       55.000000
 30
        0.000000
 40
        1.000000
  0
CIRCLE
  8
0
 10
      -31.500000
 20
       52.000000
 30
        0.000000
 40
        1.000000
  0
CIRCLE
  8
0
 10
      -30.000000
 20
       49.000000
 30
        0.000000
 40
        1.000000
  0
CIRCLE
  8
0
 10
      -40.000000
 20
       53.000000
 30
        0.000000
 40
        1.200000
  0
CIRCLE
  8
0
 10
      -40.000000
 20
       53.000000
 30
        0.000000
 40
        1.500000
  0
CIRCLE
  8
0
 10
      -33.000000
 20
       55.000000
 30
        0.000000
 40
        1.000000
  0
CIRCLE
  8
0
 10
      -33.000000
 20
       49.000000
 30
        0.000000
 40
        1.000000
  0
CIRCLE
  8
0
 10
      -15.000000
 20
       55.000000
 30
        0.000000
 40
        1.000000
  0
CIRCLE
  8
0
 10
      -21.000000
 20
       55.000000
 30
        0.000000
 40
        1.000000
  0
CIRCLE
  8
0
 10
      -24.000000
 20
       55.000000
 30
        0.000000
 40
        1.000000
  0
CIRCLE
  8
0
 10
      -18.000000
 20
       55.000000
 30
        0.000000
 40
        1.000000
  0
CIRCLE
  8
0
 10
      -12.000000
 20
       55.000000
 30
        0.000000
 40
        1.000000
  0
CIRCLE
  8
0
 10
       -9.000000
 20
       55.000000
 30
        0.000000
 40
        1.000000
  0
CIRCLE
  8
0
 10
       -6.000000
 20
       55.000000
 30
        0.000000
 40
        1.000000
  0
CIRCLE
  8
0
 10
      -27.000000
 20
       55.000000
 30
        0.000000
 40
        1.000000
  0
CIRCLE
  8
0
 10
      -27.000000
 20
       49.000000
 30
        0.000000
 40
        1.000000
  0
CIRCLE
  8
0
 10
      -25.500000
 20
       52.000000
 30
        0.000000
 40
        1.000000
  0
CIRCLE
  8
0
 10
       -7.500000
 20
       52.000000
 30
        0.000000
 40
        1.000000
  0
CIRCLE
  8
0
 10
      -15.000000
 20
       49.000000
 30
        0.000000
 40
        1.000000
  0
CIRCLE
  8
0
 10
      -13.500000
 20
       52.000000
 30
        0.000000
 40
        1.000000
  0
CIRCLE
  8
0
 10
      -16.500000
 20
       52.000000
 30
        0.000000
 40
        1.000000
  0
CIRCLE
  8
0
 10
      -19.500000
 20
       52.000000
 30
        0.000000
 40
        1.000000
  0
CIRCLE
  8
0
 10
      -21.000000
 20
       49.000000
 30
        0.000000
 40
        1.000000
  0
CIRCLE
  8
0
 10
      -24.000000
 20
       49.000000
 30
        0.000000
 40
        1.000000
  0
CIRCLE
  8
0
 10
      -22.500000
 20
       52.000000
 30
        0.000000
 40
        1.000000
  0
CIRCLE
  8
0
 10
      -18.000000
 20
       49.000000
 30
        0.000000
 40
        1.000000
  0
CIRCLE
  8
0
 10
      -10.500000
 20
       52.000000
 30
        0.000000
 40
        1.000000
  0
CIRCLE
  8
0
 10
      -12.000000
 20
       49.000000
 30
        0.000000
 40
        1.000000
  0
CIRCLE
  8
0
 10
       -9.000000
 20
       49.000000
 30
        0.000000
 40
        1.000000
  0
CIRCLE
  8
0
 10
       -6.000000
 20
       49.000000
 30
        0.000000
 40
        1.000000
  0
CIRCLE
  8
0
 10
       16.500000
 20
       52.000000
 30
        0.000000
 40
        1.000000
  0
CIRCLE
  8
0
 10
       15.000000
 20
       55.000000
 30
        0.000000
 40
        1.000000
  0
CIRCLE
  8
0
 10
       15.000000
 20
       49.000000
 30
        0.000000
 40
        1.000000
  0
CIRCLE
  8
0
 10
       13.500000
 20
       52.000000
 30
        0.000000
 40
        1.000000
  0
CIRCLE
  8
0
 10
        6.000000
 20
       55.000000
 30
        0.000000
 40
        1.000000
  0
CIRCLE
  8
0
 10
        3.000000
 20
       55.000000
 30
        0.000000
 40
        1.000000
  0
CIRCLE
  8
0
 10
        9.000000
 20
       55.000000
 30
        0.000000
 40
        1.000000
  0
CIRCLE
  8
0
 10
       -3.000000
 20
       55.000000
 30
        0.000000
 40
        1.000000
  0
CIRCLE
  8
0
 10
        0.000000
 20
       55.000000
 30
        0.000000
 40
        1.000000
  0
CIRCLE
  8
0
 10
       10.500000
 20
       52.000000
 30
        0.000000
 40
        1.000000
  0
CIRCLE
  8
0
 10
        6.000000
 20
       49.000000
 30
        0.000000
 40
        1.000000
  0
CIRCLE
  8
0
 10
        1.500000
 20
       52.000000
 30
        0.000000
 40
        1.000000
  0
CIRCLE
  8
0
 10
        4.500000
 20
       52.000000
 30
        0.000000
 40
        1.000000
  0
CIRCLE
  8
0
 10
        3.000000
 20
       49.000000
 30
        0.000000
 40
        1.000000
  0
CIRCLE
  8
0
 10
        7.500000
 20
       52.000000
 30
        0.000000
 40
        1.000000
  0
CIRCLE
  8
0
 10
        9.000000
 20
       49.000000
 30
        0.000000
 40
        1.000000
  0
CIRCLE
  8
0
 10
       -3.000000
 20
       49.000000
 30
        0.000000
 40
        1.000000
  0
CIRCLE
  8
0
 10
       -1.500000
 20
       52.000000
 30
        0.000000
 40
        1.000000
  0
CIRCLE
  8
0
 10
        0.000000
 20
       49.000000
 30
        0.000000
 40
        1.000000
  0
CIRCLE
  8
0
 10
       12.000000
 20
       55.000000
 30
        0.000000
 40
        1.000000
  0
CIRCLE
  8
0
 10
       12.000000
 20
       49.000000
 30
        0.000000
 40
        1.000000
  0
CIRCLE
  8
0
 10
       33.000000
 20
       55.000000
 30
        0.000000
 40
        1.000000
  0
CIRCLE
  8
0
 10
       27.000000
 20
       55.000000
 30
        0.000000
 40
        1.000000
  0
CIRCLE
  8
0
 10
       30.000000
 20
       55.000000
 30
        0.000000
 40
        1.000000
  0
CIRCLE
  8
0
 10
       21.000000
 20
       55.000000
 30
        0.000000
 40
        1.000000
  0
CIRCLE
  8
0
 10
       24.000000
 20
       55.000000
 30
        0.000000
 40
        1.000000
  0
CIRCLE
  8
0
 10
       18.000000
 20
       55.000000
 30
        0.000000
 40
        1.000000
  0
CIRCLE
  8
0
 10
       19.500000
 20
       52.000000
 30
        0.000000
 40
        1.000000
  0
CIRCLE
  8
0
 10
       18.000000
 20
       49.000000
 30
        0.000000
 40
        1.000000
  0
CIRCLE
  8
0
 10
       31.500000
 20
       52.000000
 30
        0.000000
 40
        1.000000
  0
CIRCLE
  8
0
 10
       33.000000
 20
       49.000000
 30
        0.000000
 40
        1.000000
  0
CIRCLE
  8
0
 10
       28.500000
 20
       52.000000
 30
        0.000000
 40
        1.000000
  0
CIRCLE
  8
0
 10
       27.000000
 20
       49.000000
 30
        0.000000
 40
        1.000000
  0
CIRCLE
  8
0
 10
       30.000000
 20
       49.000000
 30
        0.000000
 40
        1.000000
  0
CIRCLE
  8
0
 10
       22.500000
 20
       52.000000
 30
        0.000000
 40
        1.000000
  0
CIRCLE
  8
0
 10
       21.000000
 20
       49.000000
 30
        0.000000
 40
        1.000000
  0
CIRCLE
  8
0
 10
       25.500000
 20
       52.000000
 30
        0.000000
 40
        1.000000
  0
CIRCLE
  8
0
 10
       24.000000
 20
       49.000000
 30
        0.000000
 40
        1.000000
  0
TEXT
  8
4
 10
      168.967679
 20
       25.235791
 30
        0.000000
 40
        1.875000
  1
ＬＡＭＰ　２
 50
        0.000000
 41
        1.000000
 51
        0.000000
  7
BIGFONT
  0
LINE
  8
0
 10
      140.508937
 20
       28.500000
 30
        0.000000
 11
      140.508937
 21
        7.500000
 31
        0.000000
  0
LINE
  8
0
 10
      155.508937
 20
       28.500000
 30
        0.000000
 11
      155.508937
 21
        7.500000
 31
        0.000000
  0
LINE
  8
0
 10
       67.500000
 20
       28.000000
 30
        0.000000
 11
       67.500000
 21
        8.000000
 31
        0.000000
  0
LINE
  8
0
 10
       65.500000
 20
       29.469375
 30
        0.000000
 11
       65.500000
 21
        8.469375
 31
        0.000000
  0
LINE
  8
0
 10
      137.008902
 20
       58.500000
 30
        0.000000
 11
      137.008902
 21
        0.000000
 31
        0.000000
  0
LINE
  8
0
 10
      136.008902
 20
       58.500000
 30
        0.000000
 11
      136.008902
 21
        0.000000
 31
        0.000000
  0
LINE
  8
0
 10
       65.500000
 20
       60.000000
 30
        0.000000
 11
       65.500000
 21
        1.500000
 31
        0.000000
  0
LINE
  8
0
 10
      185.008902
 20
       58.500000
 30
        0.000000
 11
      185.008902
 21
        0.000000
 31
        0.000000
  0
LINE
  8
0
 10
      186.008902
 20
       58.500000
 30
        0.000000
 11
      186.008902
 21
        0.000000
 31
        0.000000
  0
LINE
  8
0
 10
      138.508902
 20
        0.000000
 30
        0.000000
 11
      183.508902
 21
        0.000000
 31
        0.000000
  0
LINE
  8
0
 10
       62.500000
 20
       20.000000
 30
        0.000000
 11
       58.500000
 21
       20.000000
 31
        0.000000
  0
CIRCLE
  8
0
 10
       60.500000
 20
       20.000000
 30
        0.000000
 40
        3.300000
  0
LINE
  8
0
 10
       60.500000
 20
       18.000000
 30
        0.000000
 11
       60.500000
 21
       22.000000
 31
        0.000000
  0
LINE
  8
0
 10
       69.726412
 20
       22.500000
 30
        0.000000
 11
       80.000000
 21
       22.500000
 31
        0.000000
  0
LINE
  8
0
 10
       70.750000
 20
       19.500000
 30
        0.000000
 11
       80.000000
 21
       19.500000
 31
        0.000000
  0
LINE
  8
0
 10
       70.815622
 20
       20.500000
 30
        0.000000
 11
       80.000000
 21
       20.500000
 31
        0.000000
  0
LINE
  8
0
 10
       70.750000
 20
       18.500000
 30
        0.000000
 11
       80.000000
 21
       18.500000
 31
        0.000000
  0
LINE
  8
0
 10
       71.246184
 20
       21.500000
 30
        0.000000
 11
       80.000000
 21
       21.500000
 31
        0.000000
  0
LINE
  8
0
 10
       70.750000
 20
       17.500000
 30
        0.000000
 11
       80.000000
 21
       17.500000
 31
        0.000000
  0
LINE
  8
0
 10
       70.750000
 20
       12.500000
 30
        0.000000
 11
       80.000000
 21
       12.500000
 31
        0.000000
  0
LINE
  8
0
 10
       70.750000
 20
       13.500000
 30
        0.000000
 11
       80.000000
 21
       13.500000
 31
        0.000000
  0
LINE
  8
0
 10
       70.750000
 20
       14.500000
 30
        0.000000
 11
       80.000000
 21
       14.500000
 31
        0.000000
  0
LINE
  8
0
 10
       70.750000
 20
       16.500000
 30
        0.000000
 11
       80.000000
 21
       16.500000
 31
        0.000000
  0
LINE
  8
0
 10
       70.750000
 20
       15.500000
 30
        0.000000
 11
       80.000000
 21
       15.500000
 31
        0.000000
  0
LINE
  8
0
 10
       69.500000
 20
       11.500000
 30
        0.000000
 11
       80.000000
 21
       11.500000
 31
        0.000000
  0
ARC
  8
0
 10
       67.000000
 20
        8.000000
 30
        0.000000
 40
        0.500000
 50
      270.000000
 51
      360.000000
  0
LINE
  8
0
 10
       70.500000
 20
       18.750000
 30
        0.000000
 11
       70.500000
 21
       19.250000
 31
        0.000000
  0
ARC
  8
0
 10
       70.750000
 20
       19.250000
 30
        0.000000
 40
        0.250000
 50
       90.000000
 51
      180.000005
  0
ARC
  8
0
 10
       70.750000
 20
       17.250000
 30
        0.000000
 40
        0.250000
 50
       90.000000
 51
      180.000005
  0
ARC
  8
0
 10
       70.750000
 20
       18.750000
 30
        0.000000
 40
        0.250000
 50
      180.000005
 51
      270.000000
  0
LINE
  8
0
 10
       68.201457
 20
       14.000000
 30
        0.000000
 11
       69.500000
 21
       14.000000
 31
        0.000000
  0
LINE
  8
0
 10
       70.500000
 20
       12.750000
 30
        0.000000
 11
       70.500000
 21
       13.250000
 31
        0.000000
  0
ARC
  8
0
 10
       70.750000
 20
       13.250000
 30
        0.000000
 40
        0.250000
 50
       90.000000
 51
      180.000005
  0
ARC
  8
0
 10
       70.750000
 20
       12.750000
 30
        0.000000
 40
        0.250000
 50
      180.000005
 51
      270.000000
  0
ARC
  8
0
 10
       70.750000
 20
       16.750000
 30
        0.000000
 40
        0.250000
 50
      180.000005
 51
      270.000000
  0
LINE
  8
0
 10
       70.500000
 20
       14.750000
 30
        0.000000
 11
       70.500000
 21
       15.250000
 31
        0.000000
  0
ARC
  8
0
 10
       70.750000
 20
       15.250000
 30
        0.000000
 40
        0.250000
 50
       90.000000
 51
      180.000005
  0
ARC
  8
0
 10
       70.750000
 20
       14.750000
 30
        0.000000
 40
        0.250000
 50
      180.000005
 51
      270.000000
  0
LINE
  8
0
 10
       68.588184
 20
       15.292920
 30
        0.000000
 11
       68.475068
 21
       14.000000
 31
        0.000000
  0
LINE
  8
0
 10
       69.500000
 20
       11.500000
 30
        0.000000
 11
       69.500000
 21
       17.753141
 31
        0.000000
  0
LINE
  8
0
 10
       70.500000
 20
       16.750000
 30
        0.000000
 11
       70.500000
 21
       17.250000
 31
        0.000000
  0
ARC
  8
0
 10
       70.753372
 20
       21.415521
 30
        0.000000
 40
        0.500000
 50
      330.168785
 51
      429.321883
  0
LINE
  8
0
 10
       67.000000
 20
        7.500000
 30
        0.000000
 11
       65.500000
 21
        7.500000
 31
        0.000000
  0
ARC
  8
0
 10
       98.001096
 20
        5.790882
 30
        0.000000
 40
       30.909676
 50
      150.168780
 51
      170.673705
  0
ARC
  8
0
 10
       81.000000
 20
       21.750000
 30
        0.000000
 40
        0.500000
 50
        0.000000
 51
       90.000000
  0
LINE
  8
0
 10
       80.000000
 20
       22.500000
 30
        0.000000
 11
       80.000000
 21
       21.500000
 31
        0.000000
  0
LINE
  8
0
 10
       80.000000
 20
       20.500000
 30
        0.000000
 11
       80.000000
 21
       19.500000
 31
        0.000000
  0
LINE
  8
0
 10
       81.000000
 20
       22.250000
 30
        0.000000
 11
       80.000000
 21
       22.250000
 31
        0.000000
  0
LINE
  8
0
 10
       80.000000
 20
       18.500000
 30
        0.000000
 11
       80.000000
 21
       17.500000
 31
        0.000000
  0
LINE
  8
0
 10
       80.000000
 20
       14.500000
 30
        0.000000
 11
       80.000000
 21
       13.500000
 31
        0.000000
  0
ARC
  8
0
 10
       81.000000
 20
       12.250000
 30
        0.000000
 40
        0.500000
 50
      270.000000
 51
      360.000000
  0
LINE
  8
0
 10
       81.000000
 20
       11.750000
 30
        0.000000
 11
       80.000000
 21
       11.750000
 31
        0.000000
  0
LINE
  8
0
 10
       80.000000
 20
       12.500000
 30
        0.000000
 11
       80.000000
 21
       11.500000
 31
        0.000000
  0
LINE
  8
0
 10
       80.000000
 20
       16.500000
 30
        0.000000
 11
       80.000000
 21
       15.500000
 31
        0.000000
  0
LINE
  8
0
 10
       81.500000
 20
       12.250000
 30
        0.000000
 11
       81.500000
 21
       21.750000
 31
        0.000000
  0
ARC
  8
0
 10
       73.054477
 20
       27.512259
 30
        0.000000
 40
        6.016540
 50
      202.601353
 51
      249.321888
  0
ARC
  8
0
 10
       52.821015
 20
       -4.500000
 30
        0.000000
 40
        0.500000
 50
      270.000000
 51
      339.902267
  0
LINE
  8
0
 10
       55.000000
 20
        0.000000
 30
        0.000000
 11
       53.290569
 21
       -4.671811
 31
        0.000000
  0
LINE
  8
0
 10
       50.000000
 20
       -5.000000
 30
        0.000000
 11
       47.178985
 21
       -5.000000
 31
        0.000000
  0
ARC
  8
0
 10
       47.178985
 20
       -4.500000
 30
        0.000000
 40
        0.500000
 50
      200.097738
 51
      270.000000
  0
LINE
  8
0
 10
       45.000000
 20
        0.000000
 30
        0.000000
 11
       46.709431
 21
       -4.671811
 31
        0.000000
  0
LINE
  8
0
 10
       50.000000
 20
       -5.000000
 30
        0.000000
 11
       52.821015
 21
       -5.000000
 31
        0.000000
  0
ARC
  8
0
 10
       64.000000
 20
        1.500000
 30
        0.000000
 40
        1.500000
 50
      270.000000
 51
      360.000000
  0
ARC
  8
0
 10
      137.753620
 20
       19.986368
 30
        0.000000
 40
        3.744889
 50
      117.768033
 51
      242.231967
  0
LINE
  8
0
 10
      142.808937
 20
       25.200000
 30
        0.000000
 11
      153.208937
 21
       25.200000
 31
        0.000000
  0
LINE
  8
0
 10
      142.508937
 20
       25.500000
 30
        0.000000
 11
      153.508937
 21
       25.500000
 31
        0.000000
  0
CIRCLE
  8
0
 10
      148.008937
 20
        9.533651
 30
        0.000000
 40
        0.542698
  0
CIRCLE
  8
0
 10
      148.008937
 20
        9.533651
 30
        0.000000
 40
        0.773800
  0
LINE
  8
0
 10
      142.808937
 20
       10.800000
 30
        0.000000
 11
      153.208937
 21
       10.800000
 31
        0.000000
  0
LINE
  8
0
 10
      142.508937
 20
       10.500000
 30
        0.000000
 11
      153.508937
 21
       10.500000
 31
        0.000000
  0
LINE
  8
0
 10
      142.808937
 20
       21.700000
 30
        0.000000
 11
      153.208937
 21
       21.700000
 31
        0.000000
  0
TEXT
  8
4
 10
      145.946555
 20
        2.181197
 30
        0.000000
 40
        1.125000
  1
ＰＯＷＥＲ　ＳＵＰＰＬＹ
 50
        0.000000
 41
        1.000000
 51
        0.000000
  7
BIGFONT
  0
LINE
  8
0
 10
      140.508937
 20
        7.500000
 30
        0.000000
 11
      155.508937
 21
        7.500000
 31
        0.000000
  0
TEXT
  8
4
 10
      141.805333
 20
        4.381742
 30
        0.000000
 40
        1.125000
  1
ＰＵＬＳＥ　ＣＯＮＴＲＯＬ
 50
        0.000000
 41
        1.000000
 51
        0.000000
  7
BIGFONT
  0
LINE
  8
0
 10
      142.808937
 20
       25.200000
 30
        0.000000
 11
      142.808937
 21
       10.800000
 31
        0.000000
  0
LINE
  8
0
 10
      142.508937
 20
       25.500000
 30
        0.000000
 11
      142.508937
 21
       10.500000
 31
        0.000000
  0
LINE
  8
0
 10
      153.208937
 20
       25.200000
 30
        0.000000
 11
      153.208937
 21
       10.800000
 31
        0.000000
  0
LINE
  8
0
 10
      153.508937
 20
       25.500000
 30
        0.000000
 11
      153.508937
 21
       10.500000
 31
        0.000000
  0
LINE
  8
0
 10
      138.508902
 20
        0.000000
 30
        0.000000
 11
      140.218333
 21
       -4.671811
 31
        0.000000
  0
ARC
  8
0
 10
      138.508902
 20
        1.500000
 30
        0.000000
 40
        1.500000
 50
      180.000005
 51
      270.000000
  0
LINE
  8
0
 10
      136.008902
 20
        0.000000
 30
        0.000000
 11
      137.008902
 21
        0.000000
 31
        0.000000
  0
LINE
  8
0
 10
      148.508902
 20
        0.000000
 30
        0.000000
 11
      146.799471
 21
       -4.671811
 31
        0.000000
  0
LINE
  8
0
 10
      143.508902
 20
       -5.000000
 30
        0.000000
 11
      146.329917
 21
       -5.000000
 31
        0.000000
  0
ARC
  8
0
 10
      146.329917
 20
       -4.500000
 30
        0.000000
 40
        0.500000
 50
      270.000000
 51
      339.902267
  0
ARC
  8
0
 10
      140.687886
 20
       -4.500000
 30
        0.000000
 40
        0.500000
 50
      200.097738
 51
      270.000000
  0
LINE
  8
0
 10
      143.508902
 20
       -5.000000
 30
        0.000000
 11
      140.687886
 21
       -5.000000
 31
        0.000000
  0
CIRCLE
  8
0
 10
      173.508902
 20
       17.000000
 30
        0.000000
 40
        5.250000
  0
CIRCLE
  8
0
 10
      173.508902
 20
       17.000000
 30
        0.000000
 40
        5.500000
  0
LINE
  8
0
 10
      169.157995
 20
       13.635537
 30
        0.000000
 11
      170.262572
 21
       14.663049
 31
        0.000000
  0
CIRCLE
  8
0
 10
      173.508902
 20
       17.000000
 30
        0.000000
 40
        4.000000
  0
LINE
  8
0
 10
      169.839098
 20
       12.903350
 30
        0.000000
 11
      170.943675
 21
       13.930861
 31
        0.000000
  0
ARC
  8
0
 10
      184.264184
 20
       19.986368
 30
        0.000000
 40
        3.744889
 50
      297.768038
 51
      422.231962
  0
ARC
  8
0
 10
      183.508902
 20
        1.500000
 30
        0.000000
 40
        1.500000
 50
      270.000000
 51
      360.000000
  0
LINE
  8
0
 10
      183.508902
 20
        0.000000
 30
        0.000000
 11
      181.799471
 21
       -4.671811
 31
        0.000000
  0
LINE
  8
0
 10
      173.508902
 20
        0.000000
 30
        0.000000
 11
      175.218333
 21
       -4.671811
 31
        0.000000
  0
ARC
  8
0
 10
      181.329917
 20
       -4.500000
 30
        0.000000
 40
        0.500000
 50
      270.000000
 51
      339.902267
  0
LINE
  8
0
 10
      178.508902
 20
       -5.000000
 30
        0.000000
 11
      181.329917
 21
       -5.000000
 31
        0.000000
  0
ARC
  8
0
 10
      175.687886
 20
       -4.500000
 30
        0.000000
 40
        0.500000
 50
      200.097738
 51
      270.000000
  0
LINE
  8
0
 10
      178.508902
 20
       -5.000000
 30
        0.000000
 11
      175.687886
 21
       -5.000000
 31
        0.000000
  0
LINE
  8
0
 10
      186.008902
 20
        0.000000
 30
        0.000000
 11
      185.008902
 21
        0.000000
 31
        0.000000
  0
LINE
  8
0
 10
      185.008902
 20
       58.500000
 30
        0.000000
 11
      137.008902
 21
       58.500000
 31
        0.000000
  0
LINE
  8
0
 10
      137.508902
 20
       59.000000
 30
        0.000000
 11
      184.508902
 21
       59.000000
 31
        0.000000
  0
LINE
  8
0
 10
      137.508902
 20
       60.000000
 30
        0.000000
 11
      184.508902
 21
       60.000000
 31
        0.000000
  0
LINE
  8
0
 10
       69.500000
 20
       36.500000
 30
        0.000000
 11
       69.500000
 21
       47.500000
 31
        0.000000
  0
ARC
  8
0
 10
       81.000000
 20
       46.750000
 30
        0.000000
 40
        0.500000
 50
        0.000000
 51
       90.000000
  0
LINE
  8
0
 10
       80.000000
 20
       47.500000
 30
        0.000000
 11
       80.000000
 21
       46.500000
 31
        0.000000
  0
LINE
  8
0
 10
       70.750000
 20
       44.500000
 30
        0.000000
 11
       80.000000
 21
       44.500000
 31
        0.000000
  0
LINE
  8
0
 10
       70.750000
 20
       45.500000
 30
        0.000000
 11
       80.000000
 21
       45.500000
 31
        0.000000
  0
LINE
  8
0
 10
       70.750000
 20
       43.500000
 30
        0.000000
 11
       80.000000
 21
       43.500000
 31
        0.000000
  0
LINE
  8
0
 10
       70.750000
 20
       46.500000
 30
        0.000000
 11
       80.000000
 21
       46.500000
 31
        0.000000
  0
LINE
  8
0
 10
       70.750000
 20
       37.500000
 30
        0.000000
 11
       80.000000
 21
       37.500000
 31
        0.000000
  0
LINE
  8
0
 10
       70.750000
 20
       38.500000
 30
        0.000000
 11
       80.000000
 21
       38.500000
 31
        0.000000
  0
LINE
  8
0
 10
       70.750000
 20
       39.500000
 30
        0.000000
 11
       80.000000
 21
       39.500000
 31
        0.000000
  0
LINE
  8
0
 10
       70.750000
 20
       41.500000
 30
        0.000000
 11
       80.000000
 21
       41.500000
 31
        0.000000
  0
LINE
  8
0
 10
       70.750000
 20
       40.500000
 30
        0.000000
 11
       80.000000
 21
       40.500000
 31
        0.000000
  0
LINE
  8
0
 10
       70.750000
 20
       42.500000
 30
        0.000000
 11
       80.000000
 21
       42.500000
 31
        0.000000
  0
LINE
  8
0
 10
       69.500000
 20
       36.500000
 30
        0.000000
 11
       80.000000
 21
       36.500000
 31
        0.000000
  0
LINE
  8
0
 10
       68.000000
 20
       45.000000
 30
        0.000000
 11
       69.500000
 21
       45.000000
 31
        0.000000
  0
LINE
  8
0
 10
       68.000000
 20
       39.000000
 30
        0.000000
 11
       69.500000
 21
       39.000000
 31
        0.000000
  0
LINE
  8
0
 10
       69.000000
 20
       45.000000
 30
        0.000000
 11
       68.475068
 21
       39.000000
 31
        0.000000
  0
LINE
  8
0
 10
       68.000000
 20
       38.102886
 30
        0.000000
 11
       68.000000
 21
       45.897114
 31
        0.000000
  0
LINE
  8
0
 10
       66.000000
 20
       37.000000
 30
        0.000000
 11
       65.500000
 21
       37.000000
 31
        0.000000
  0
LINE
  8
0
 10
       68.000000
 20
       38.102886
 30
        0.000000
 11
       66.000000
 21
       38.102886
 31
        0.000000
  0
LINE
  8
0
 10
       66.000000
 20
       47.000000
 30
        0.000000
 11
       65.500000
 21
       47.000000
 31
        0.000000
  0
LINE
  8
0
 10
       68.000000
 20
       45.897114
 30
        0.000000
 11
       66.000000
 21
       45.897114
 31
        0.000000
  0
LINE
  8
0
 10
       70.500000
 20
       37.750000
 30
        0.000000
 11
       70.500000
 21
       38.250000
 31
        0.000000
  0
ARC
  8
0
 10
       70.750000
 20
       38.250000
 30
        0.000000
 40
        0.250000
 50
       90.000000
 51
      180.000005
  0
ARC
  8
0
 10
       70.750000
 20
       37.750000
 30
        0.000000
 40
        0.250000
 50
      180.000005
 51
      270.000000
  0
LINE
  8
0
 10
       70.500000
 20
       43.750000
 30
        0.000000
 11
       70.500000
 21
       44.250000
 31
        0.000000
  0
LINE
  8
0
 10
       70.500000
 20
       45.750000
 30
        0.000000
 11
       70.500000
 21
       46.250000
 31
        0.000000
  0
ARC
  8
0
 10
       70.750000
 20
       46.250000
 30
        0.000000
 40
        0.250000
 50
       90.000000
 51
      180.000005
  0
ARC
  8
0
 10
       70.750000
 20
       45.750000
 30
        0.000000
 40
        0.250000
 50
      180.000005
 51
      270.000000
  0
ARC
  8
0
 10
       70.750000
 20
       44.250000
 30
        0.000000
 40
        0.250000
 50
       90.000000
 51
      180.000005
  0
ARC
  8
0
 10
       70.750000
 20
       41.750000
 30
        0.000000
 40
        0.250000
 50
      180.000005
 51
      270.000000
  0
LINE
  8
0
 10
       70.500000
 20
       39.750000
 30
        0.000000
 11
       70.500000
 21
       40.250000
 31
        0.000000
  0
ARC
  8
0
 10
       70.750000
 20
       40.250000
 30
        0.000000
 40
        0.250000
 50
       90.000000
 51
      180.000005
  0
ARC
  8
0
 10
       70.750000
 20
       39.750000
 30
        0.000000
 40
        0.250000
 50
      180.000005
 51
      270.000000
  0
LINE
  8
0
 10
       70.500000
 20
       41.750000
 30
        0.000000
 11
       70.500000
 21
       42.250000
 31
        0.000000
  0
ARC
  8
0
 10
       70.750000
 20
       42.250000
 30
        0.000000
 40
        0.250000
 50
       90.000000
 51
      180.000005
  0
ARC
  8
0
 10
       70.750000
 20
       43.750000
 30
        0.000000
 40
        0.250000
 50
      180.000005
 51
      270.000000
  0
LINE
  8
0
 10
       80.000000
 20
       39.500000
 30
        0.000000
 11
       80.000000
 21
       38.500000
 31
        0.000000
  0
LINE
  8
0
 10
       81.500000
 20
       37.250000
 30
        0.000000
 11
       81.500000
 21
       46.750000
 31
        0.000000
  0
ARC
  8
0
 10
       81.000000
 20
       37.250000
 30
        0.000000
 40
        0.500000
 50
      270.000000
 51
      360.000000
  0
LINE
  8
0
 10
       81.000000
 20
       36.750000
 30
        0.000000
 11
       80.000000
 21
       36.750000
 31
        0.000000
  0
LINE
  8
0
 10
       80.000000
 20
       37.500000
 30
        0.000000
 11
       80.000000
 21
       36.500000
 31
        0.000000
  0
LINE
  8
0
 10
       80.000000
 20
       45.500000
 30
        0.000000
 11
       80.000000
 21
       44.500000
 31
        0.000000
  0
LINE
  8
0
 10
       81.000000
 20
       47.250000
 30
        0.000000
 11
       80.000000
 21
       47.250000
 31
        0.000000
  0
LINE
  8
0
 10
       80.000000
 20
       41.500000
 30
        0.000000
 11
       80.000000
 21
       40.500000
 31
        0.000000
  0
LINE
  8
0
 10
       80.000000
 20
       43.500000
 30
        0.000000
 11
       80.000000
 21
       42.500000
 31
        0.000000
  0
LINE
  8
0
 10
       69.500000
 20
       47.500000
 30
        0.000000
 11
       80.000000
 21
       47.500000
 31
        0.000000
  0
ARC
  8
0
 10
       67.000000
 20
       28.000000
 30
        0.000000
 40
        0.500000
 50
        0.000000
 51
       90.000000
  0
LINE
  8
0
 10
       67.000000
 20
       28.500000
 30
        0.000000
 11
       65.500000
 21
       28.500000
 31
        0.000000
  0
LINE
  8
0
 10
       66.314249
 20
       45.500000
 30
        0.000000
 11
       65.500000
 21
       45.500000
 31
        0.000000
  0
LINE
  8
0
 10
       67.314249
 20
       41.000000
 30
        0.000000
 11
       66.314249
 21
       38.500000
 31
        0.000000
  0
LINE
  8
0
 10
       66.314249
 20
       38.500000
 30
        0.000000
 11
       65.500000
 21
       38.500000
 31
        0.000000
  0
ARC
  8
0
 10
       67.000000
 20
       42.000000
 30
        0.000000
 40
        1.000000
 50
      288.315488
 51
      360.000000
  0
ARC
  8
0
 10
       67.000000
 20
       42.000000
 30
        0.000000
 40
        1.000000
 50
        0.000000
 51
       71.684512
  0
LINE
  8
0
 10
       67.314249
 20
       43.000000
 30
        0.000000
 11
       67.314249
 21
       42.000000
 31
        0.000000
  0
LINE
  8
0
 10
       67.314249
 20
       41.000000
 30
        0.000000
 11
       67.314249
 21
       42.000000
 31
        0.000000
  0
LINE
  8
0
 10
       67.314249
 20
       43.000000
 30
        0.000000
 11
       66.314249
 21
       45.500000
 31
        0.000000
  0
LINE
  8
0
 10
       66.314249
 20
       45.500000
 30
        0.000000
 11
       66.314249
 21
       38.500000
 31
        0.000000
  0
LINE
  8
0
 10
       66.000000
 20
       45.500000
 30
        0.000000
 11
       66.000000
 21
       47.000000
 31
        0.000000
  0
LINE
  8
0
 10
       66.000000
 20
       37.000000
 30
        0.000000
 11
       66.000000
 21
       38.500000
 31
        0.000000
  0
ARC
  8
0
 10
      137.508902
 20
       58.500000
 30
        0.000000
 40
        0.500000
 50
       90.000000
 51
      180.000005
  0
CIRCLE
  8
0
 10
      148.008902
 20
       42.000000
 30
        0.000000
 40
        1.000000
  0
TEXT
  8
4
 10
      144.072678
 20
       47.818363
 30
        0.000000
 40
        1.875000
  1
ＰＯＷＥＲ
 50
        0.000000
 41
        1.000000
 51
        0.000000
  7
BIGFONT
  0
CIRCLE
  8
0
 10
      148.008902
 20
       42.000000
 30
        0.000000
 40
        3.500000
  0
LINE
  8
0
 10
      149.024901
 20
       26.211372
 30
        0.000000
 11
      146.992973
 21
       26.211372
 31
        0.000000
  0
LINE
  8
0
 10
      146.992973
 20
       26.719039
 30
        0.000000
 11
      149.024901
 21
       26.719039
 31
        0.000000
  0
LINE
  8
0
 10
      146.992973
 20
       26.211372
 30
        0.000000
 11
      146.992973
 21
       26.719039
 31
        0.000000
  0
LINE
  8
0
 10
      149.024901
 20
       26.719039
 30
        0.000000
 11
      149.024901
 21
       26.211372
 31
        0.000000
  0
LINE
  8
0
 10
      140.508937
 20
       28.500000
 30
        0.000000
 11
      155.508937
 21
       28.500000
 31
        0.000000
  0
ARC
  8
0
 10
      137.508902
 20
       58.500000
 30
        0.000000
 40
        1.500000
 50
       90.000000
 51
      180.000005
  0
LINE
  8
0
 10
       67.314249
 20
      118.108810
 30
        0.000000
 11
       66.314249
 21
      120.608810
 31
        0.000000
  0
LINE
  8
0
 10
       66.314249
 20
      120.608810
 30
        0.000000
 11
       66.314249
 21
      113.608810
 31
        0.000000
  0
LINE
  8
0
 10
       67.314249
 20
      116.108810
 30
        0.000000
 11
       66.314249
 21
      113.608810
 31
        0.000000
  0
LINE
  8
0
 10
       66.314249
 20
      113.608810
 30
        0.000000
 11
       65.500000
 21
      113.608810
 31
        0.000000
  0
ARC
  8
0
 10
       67.000000
 20
      117.108810
 30
        0.000000
 40
        1.000000
 50
      288.315488
 51
      360.000000
  0
ARC
  8
0
 10
       67.000000
 20
      117.108810
 30
        0.000000
 40
        1.000000
 50
        0.000000
 51
       71.684512
  0
LINE
  8
0
 10
       67.314249
 20
      118.108810
 30
        0.000000
 11
       67.314249
 21
      117.108810
 31
        0.000000
  0
LINE
  8
0
 10
       67.314249
 20
      116.108810
 30
        0.000000
 11
       67.314249
 21
      117.108810
 31
        0.000000
  0
LINE
  8
0
 10
       66.314249
 20
      120.608810
 30
        0.000000
 11
       65.500000
 21
      120.608810
 31
        0.000000
  0
LINE
  8
0
 10
       69.500000
 20
      144.303896
 30
        0.000000
 11
       80.000000
 21
      144.303896
 31
        0.000000
  0
LINE
  8
0
 10
       70.750000
 20
      143.303896
 30
        0.000000
 11
       80.000000
 21
      143.303896
 31
        0.000000
  0
LINE
  8
0
 10
       70.750000
 20
      142.303896
 30
        0.000000
 11
       80.000000
 21
      142.303896
 31
        0.000000
  0
ARC
  8
0
 10
       70.750000
 20
      142.553896
 30
        0.000000
 40
        0.250000
 50
      180.000005
 51
      270.000000
  0
ARC
  8
0
 10
       70.750000
 20
      143.053896
 30
        0.000000
 40
        0.250000
 50
       90.000000
 51
      180.000005
  0
LINE
  8
0
 10
       70.500000
 20
      142.553896
 30
        0.000000
 11
       70.500000
 21
      143.053896
 31
        0.000000
  0
LINE
  8
0
 10
       68.000000
 20
      142.701010
 30
        0.000000
 11
       66.000000
 21
      142.701010
 31
        0.000000
  0
LINE
  8
0
 10
       66.000000
 20
      143.803896
 30
        0.000000
 11
       65.500000
 21
      143.803896
 31
        0.000000
  0
LINE
  8
0
 10
       81.000000
 20
      144.053896
 30
        0.000000
 11
       80.000000
 21
      144.053896
 31
        0.000000
  0
LINE
  8
0
 10
       80.000000
 20
      144.303896
 30
        0.000000
 11
       80.000000
 21
      143.303896
 31
        0.000000
  0
ARC
  8
0
 10
       81.000000
 20
      143.553896
 30
        0.000000
 40
        0.500000
 50
        0.000000
 51
       90.000000
  0
LINE
  8
0
 10
       70.750000
 20
      139.303896
 30
        0.000000
 11
       80.000000
 21
      139.303896
 31
        0.000000
  0
LINE
  8
0
 10
       70.750000
 20
      140.303896
 30
        0.000000
 11
       80.000000
 21
      140.303896
 31
        0.000000
  0
LINE
  8
0
 10
       70.750000
 20
      141.303896
 30
        0.000000
 11
       80.000000
 21
      141.303896
 31
        0.000000
  0
ARC
  8
0
 10
       70.750000
 20
      140.553896
 30
        0.000000
 40
        0.250000
 50
      180.000005
 51
      270.000000
  0
ARC
  8
0
 10
       70.750000
 20
      139.053896
 30
        0.000000
 40
        0.250000
 50
       90.000000
 51
      180.000005
  0
ARC
  8
0
 10
       70.750000
 20
      141.053896
 30
        0.000000
 40
        0.250000
 50
       90.000000
 51
      180.000005
  0
LINE
  8
0
 10
       70.500000
 20
      140.553896
 30
        0.000000
 11
       70.500000
 21
      141.053896
 31
        0.000000
  0
LINE
  8
0
 10
       68.000000
 20
      141.803896
 30
        0.000000
 11
       69.500000
 21
      141.803896
 31
        0.000000
  0
LINE
  8
0
 10
       80.000000
 20
      140.303896
 30
        0.000000
 11
       80.000000
 21
      139.303896
 31
        0.000000
  0
LINE
  8
0
 10
       80.000000
 20
      142.303896
 30
        0.000000
 11
       80.000000
 21
      141.303896
 31
        0.000000
  0
LINE
  8
0
 10
       69.500000
 20
      133.303896
 30
        0.000000
 11
       80.000000
 21
      133.303896
 31
        0.000000
  0
LINE
  8
0
 10
       70.750000
 20
      137.303896
 30
        0.000000
 11
       80.000000
 21
      137.303896
 31
        0.000000
  0
LINE
  8
0
 10
       70.750000
 20
      138.303896
 30
        0.000000
 11
       80.000000
 21
      138.303896
 31
        0.000000
  0
LINE
  8
0
 10
       70.750000
 20
      136.303896
 30
        0.000000
 11
       80.000000
 21
      136.303896
 31
        0.000000
  0
LINE
  8
0
 10
       70.750000
 20
      135.303896
 30
        0.000000
 11
       80.000000
 21
      135.303896
 31
        0.000000
  0
LINE
  8
0
 10
       70.750000
 20
      134.303896
 30
        0.000000
 11
       80.000000
 21
      134.303896
 31
        0.000000
  0
ARC
  8
0
 10
       67.000000
 20
      123.603896
 30
        0.000000
 40
        0.500000
 50
        0.000000
 51
       90.000000
  0
LINE
  8
0
 10
       67.000000
 20
      124.103896
 30
        0.000000
 11
       65.500000
 21
      124.103896
 31
        0.000000
  0
ARC
  8
0
 10
       70.750000
 20
      136.553896
 30
        0.000000
 40
        0.250000
 50
      180.000005
 51
      270.000000
  0
ARC
  8
0
 10
       70.750000
 20
      137.053896
 30
        0.000000
 40
        0.250000
 50
       90.000000
 51
      180.000005
  0
LINE
  8
0
 10
       70.500000
 20
      136.553896
 30
        0.000000
 11
       70.500000
 21
      137.053896
 31
        0.000000
  0
ARC
  8
0
 10
       70.750000
 20
      138.553896
 30
        0.000000
 40
        0.250000
 50
      180.000005
 51
      270.000000
  0
ARC
  8
0
 10
       70.750000
 20
      134.553896
 30
        0.000000
 40
        0.250000
 50
      180.000005
 51
      270.000000
  0
ARC
  8
0
 10
       70.750000
 20
      135.053896
 30
        0.000000
 40
        0.250000
 50
       90.000000
 51
      180.000005
  0
LINE
  8
0
 10
       70.500000
 20
      134.553896
 30
        0.000000
 11
       70.500000
 21
      135.053896
 31
        0.000000
  0
LINE
  8
0
 10
       68.000000
 20
      134.906781
 30
        0.000000
 11
       66.000000
 21
      134.906781
 31
        0.000000
  0
LINE
  8
0
 10
       66.000000
 20
      133.803896
 30
        0.000000
 11
       65.500000
 21
      133.803896
 31
        0.000000
  0
LINE
  8
0
 10
       68.000000
 20
      135.803896
 30
        0.000000
 11
       69.500000
 21
      135.803896
 31
        0.000000
  0
LINE
  8
0
 10
       80.000000
 20
      138.303896
 30
        0.000000
 11
       80.000000
 21
      137.303896
 31
        0.000000
  0
LINE
  8
0
 10
       80.000000
 20
      134.303896
 30
        0.000000
 11
       80.000000
 21
      133.303896
 31
        0.000000
  0
LINE
  8
0
 10
       81.000000
 20
      133.553896
 30
        0.000000
 11
       80.000000
 21
      133.553896
 31
        0.000000
  0
ARC
  8
0
 10
       81.000000
 20
      134.053896
 30
        0.000000
 40
        0.500000
 50
      270.000000
 51
      360.000000
  0
LINE
  8
0
 10
       80.000000
 20
      136.303896
 30
        0.000000
 11
       80.000000
 21
      135.303896
 31
        0.000000
  0
LINE
  8
0
 10
       70.500000
 20
      138.553896
 30
        0.000000
 11
       70.500000
 21
      139.053896
 31
        0.000000
  0
LINE
  8
0
 10
       69.000000
 20
      141.803896
 30
        0.000000
 11
       68.475068
 21
      135.803896
 31
        0.000000
  0
LINE
  8
0
 10
       66.000000
 20
      133.803896
 30
        0.000000
 11
       66.000000
 21
      143.803896
 31
        0.000000
  0
LINE
  8
0
 10
       68.000000
 20
      134.906781
 30
        0.000000
 11
       68.000000
 21
      142.701010
 31
        0.000000
  0
LINE
  8
0
 10
       69.500000
 20
      133.303896
 30
        0.000000
 11
       69.500000
 21
      144.303896
 31
        0.000000
  0
LINE
  8
0
 10
       81.500000
 20
      134.053896
 30
        0.000000
 11
       81.500000
 21
      143.553896
 31
        0.000000
  0
ARC
  8
0
 10
       60.500000
 20
      104.848614
 30
        0.000000
 40
        3.744889
 50
      207.768041
 51
      332.231964
  0
LINE
  8
0
 10
       71.253372
 20
      111.903896
 30
        0.000000
 11
       71.253372
 21
      121.303896
 31
        0.000000
  0
ARC
  8
0
 10
       70.753372
 20
      111.903896
 30
        0.000000
 40
        0.500000
 50
      270.000000
 51
      360.000000
  0
ARC
  8
0
 10
       67.000000
 20
      109.603896
 30
        0.000000
 40
        0.500000
 50
      270.000000
 51
      360.000000
  0
LINE
  8
0
 10
       70.753372
 20
      111.403896
 30
        0.000000
 11
       67.500000
 21
      111.403896
 31
        0.000000
  0
LINE
  8
0
 10
       67.000000
 20
      109.103896
 30
        0.000000
 11
       65.500000
 21
      109.103896
 31
        0.000000
  0
ARC
  8
0
 10
       70.753372
 20
      121.303896
 30
        0.000000
 40
        0.500000
 50
        0.000000
 51
       90.000000
  0
LINE
  8
0
 10
       70.753372
 20
      121.803896
 30
        0.000000
 11
       67.500000
 21
      121.803896
 31
        0.000000
  0
LINE
  8
0
 10
       67.500000
 20
      109.603896
 30
        0.000000
 11
       67.500000
 21
      116.242784
 31
        0.000000
  0
LINE
  8
0
 10
       67.500000
 20
      117.974835
 30
        0.000000
 11
       67.500000
 21
      123.603896
 31
        0.000000
  0
TEXT
  8
4
 10
      168.967679
 20
       50.235791
 30
        0.000000
 40
        1.875000
  1
ＬＡＭＰ　１
 50
        0.000000
 41
        1.000000
 51
        0.000000
  7
BIGFONT
  0
CIRCLE
  8
0
 10
      173.508902
 20
       42.000000
 30
        0.000000
 40
        5.500000
  0
LINE
  8
0
 10
      169.157995
 20
       38.635537
 30
        0.000000
 11
      170.262572
 21
       39.663049
 31
        0.000000
  0
CIRCLE
  8
0
 10
      173.508902
 20
       42.000000
 30
        0.000000
 40
        5.250000
  0
LINE
  8
0
 10
      169.839098
 20
       37.903350
 30
        0.000000
 11
      170.943675
 21
       38.930861
 31
        0.000000
  0
CIRCLE
  8
0
 10
      173.508902
 20
       42.000000
 30
        0.000000
 40
        4.000000
  0
ARC
  8
0
 10
      184.508902
 20
       58.500000
 30
        0.000000
 40
        0.500000
 50
        0.000000
 51
       90.000000
  0
ARC
  8
0
 10
      184.508902
 20
       58.500000
 30
        0.000000
 40
        1.500000
 50
        0.000000
 51
       90.000000
  0
LINE
  8
0
 10
      -65.500000
 20
      153.103896
 30
        0.000000
 11
       65.500000
 21
      153.103896
 31
        0.000000
  0
ARC
  8
0
 10
      -60.500000
 20
      151.359178
 30
        0.000000
 40
        3.744889
 50
       27.768036
 51
      152.231959
  0
ARC
  8
0
 10
       60.500000
 20
      151.359178
 30
        0.000000
 40
        3.744889
 50
       27.768036
 51
      152.231959
  0
LINE
  8
0
 10
     -131.361416
 20
        0.000000
 30
        0.000000
 11
     -176.361416
 21
        0.000000
 31
        0.000000
  0
LINE
  8
0
 10
     -176.361416
 20
        0.000000
 30
        0.000000
 11
     -174.651985
 21
       -4.671811
 31
        0.000000
  0
LINE
  8
0
 10
     -130.361416
 20
       59.000000
 30
        0.000000
 11
     -177.361416
 21
       59.000000
 31
        0.000000
  0
LINE
  8
0
 10
     -177.861416
 20
       58.500000
 30
        0.000000
 11
     -129.861416
 21
       58.500000
 31
        0.000000
  0
LINE
  8
0
 10
     -130.361416
 20
       60.000000
 30
        0.000000
 11
     -177.361416
 21
       60.000000
 31
        0.000000
  0
LINE
  8
0
 10
     -178.861416
 20
       58.500000
 30
        0.000000
 11
     -178.861416
 21
        0.000000
 31
        0.000000
  0
LINE
  8
0
 10
     -177.861416
 20
       58.500000
 30
        0.000000
 11
     -177.861416
 21
        0.000000
 31
        0.000000
  0
ARC
  8
0
 10
     -176.361416
 20
        1.500000
 30
        0.000000
 40
        1.500000
 50
      180.000005
 51
      270.000000
  0
LINE
  8
0
 10
     -178.861416
 20
        0.000000
 30
        0.000000
 11
     -177.861416
 21
        0.000000
 31
        0.000000
  0
ARC
  8
0
 10
     -177.361416
 20
       58.500000
 30
        0.000000
 40
        0.500000
 50
       90.000000
 51
      180.000005
  0
ARC
  8
0
 10
     -177.361416
 20
       58.500000
 30
        0.000000
 40
        1.500000
 50
       90.000000
 51
      180.000005
  0
LINE
  8
0
 10
      -65.500000
 20
      153.103896
 30
        0.000000
 11
      -65.500000
 21
      103.103896
 31
        0.000000
  0
LINE
  8
0
 10
       65.500000
 20
      153.103896
 30
        0.000000
 11
       65.500000
 21
      103.103896
 31
        0.000000
  0
LINE
  8
0
 10
      -64.000000
 20
        0.000000
 30
        0.000000
 11
       64.000000
 21
        0.000000
 31
        0.000000
  0
LINE
  8
0
 10
      -65.500000
 20
       60.000000
 30
        0.000000
 11
       65.500000
 21
       60.000000
 31
        0.000000
  0
CIRCLE
  8
0
 10
       40.000000
 20
       53.000000
 30
        0.000000
 40
        1.200000
  0
CIRCLE
  8
0
 10
       40.000000
 20
       53.000000
 30
        0.000000
 40
        1.500000
  0
CIRCLE
  8
0
 10
       40.000000
 20
        9.000000
 30
        0.000000
 40
        1.200000
  0
CIRCLE
  8
0
 10
       40.000000
 20
        9.000000
 30
        0.000000
 40
        1.500000
  0
LINE
  8
0
 10
      -65.500000
 20
      103.103896
 30
        0.000000
 11
       65.500000
 21
      103.103896
 31
        0.000000
  0
LINE
  8
0
 10
      -68.000000
 20
       38.169748
 30
        0.000000
 11
      -68.000000
 21
        3.169733
 31
        0.000000
  0
LINE
  8
0
 10
     -131.861426
 20
       37.669745
 30
        0.000000
 11
     -131.861426
 21
        3.669733
 31
        0.000000
  0
LINE
  8
0
 10
     -151.028086
 20
       13.669723
 30
        0.000000
 11
     -151.028086
 21
       27.669761
 31
        0.000000
  0
LINE
  8
0
 10
     -154.861406
 20
       37.669745
 30
        0.000000
 11
     -154.861406
 21
        3.669733
 31
        0.000000
  0
LINE
  8
0
 10
     -135.028086
 20
       31.669725
 30
        0.000000
 11
     -135.028086
 21
        9.669753
 31
        0.000000
  0
LINE
  8
0
 10
     -128.861416
 20
       58.500000
 30
        0.000000
 11
     -128.861416
 21
        0.000000
 31
        0.000000
  0
LINE
  8
0
 10
     -129.861416
 20
       58.500000
 30
        0.000000
 11
     -129.861416
 21
        0.000000
 31
        0.000000
  0
LINE
  8
0
 10
      -65.500000
 20
       60.000000
 30
        0.000000
 11
      -65.500000
 21
        1.500000
 31
        0.000000
  0
LINE
  8
0
 10
      -50.000000
 20
       -5.000000
 30
        0.000000
 11
      -47.178985
 21
       -5.000000
 31
        0.000000
  0
ARC
  8
0
 10
     -131.361416
 20
        1.500000
 30
        0.000000
 40
        1.500000
 50
      270.000000
 51
      360.000000
  0
LINE
  8
0
 10
     -128.861416
 20
        0.000000
 30
        0.000000
 11
     -129.861416
 21
        0.000000
 31
        0.000000
  0
ARC
  8
0
 10
     -132.861426
 20
        3.669733
 30
        0.000000
 40
        1.000000
 50
      270.000000
 51
      360.000000
  0
LINE
  8
0
 10
     -153.861396
 20
        2.669733
 30
        0.000000
 11
     -132.861426
 21
        2.669733
 31
        0.000000
  0
ARC
  8
0
 10
     -153.861396
 20
        3.669733
 30
        0.000000
 40
        1.000000
 50
      180.000005
 51
      270.000000
  0
ARC
  8
0
 10
     -136.028086
 20
        9.669753
 30
        0.000000
 40
        1.000000
 50
      270.000000
 51
      360.000000
  0
LINE
  8
0
 10
     -147.194756
 20
        8.669753
 30
        0.000000
 11
     -136.028086
 21
        8.669753
 31
        0.000000
  0
LINE
  8
0
 10
     -139.520156
 20
       12.660813
 30
        0.000000
 11
     -139.520156
 21
       14.660813
 31
        0.000000
  0
LINE
  8
0
 10
     -143.520176
 20
       14.660813
 30
        0.000000
 11
     -143.520176
 21
       12.660813
 31
        0.000000
  0
LINE
  8
0
 10
     -143.520176
 20
       12.660813
 30
        0.000000
 11
     -139.520156
 21
       12.660813
 31
        0.000000
  0
LINE
  8
0
 10
     -147.531416
 20
       21.668263
 30
        0.000000
 11
     -147.531416
 21
       19.668253
 31
        0.000000
  0
LINE
  8
0
 10
     -143.531406
 20
       19.668253
 30
        0.000000
 11
     -143.531406
 21
       21.668263
 31
        0.000000
  0
LINE
  8
0
 10
     -143.531406
 20
       21.668263
 30
        0.000000
 11
     -147.531416
 21
       21.668263
 31
        0.000000
  0
LINE
  8
0
 10
     -147.531416
 20
       19.668253
 30
        0.000000
 11
     -143.531406
 21
       19.668253
 31
        0.000000
  0
LINE
  8
0
 10
     -139.520156
 20
       14.660813
 30
        0.000000
 11
     -143.520176
 21
       14.660813
 31
        0.000000
  0
LINE
  8
0
 10
     -147.194756
 20
        8.669753
 30
        0.000000
 11
     -151.028086
 21
       13.669723
 31
        0.000000
  0
LINE
  8
0
 10
     -171.361416
 20
       -5.000000
 30
        0.000000
 11
     -168.540400
 21
       -5.000000
 31
        0.000000
  0
ARC
  8
0
 10
     -174.182431
 20
       -4.500000
 30
        0.000000
 40
        0.500000
 50
      200.097738
 51
      270.000000
  0
LINE
  8
0
 10
     -171.361416
 20
       -5.000000
 30
        0.000000
 11
     -174.182431
 21
       -5.000000
 31
        0.000000
  0
LINE
  8
0
 10
     -166.361416
 20
        0.000000
 30
        0.000000
 11
     -168.070846
 21
       -4.671811
 31
        0.000000
  0
ARC
  8
0
 10
     -168.540400
 20
       -4.500000
 30
        0.000000
 40
        0.500000
 50
      270.000000
 51
      339.902267
  0
LINE
  8
0
 10
     -136.361416
 20
       -5.000000
 30
        0.000000
 11
     -133.540400
 21
       -5.000000
 31
        0.000000
  0
ARC
  8
0
 10
     -133.540400
 20
       -4.500000
 30
        0.000000
 40
        0.500000
 50
      270.000000
 51
      339.902267
  0
LINE
  8
0
 10
     -131.361416
 20
        0.000000
 30
        0.000000
 11
     -133.070846
 21
       -4.671811
 31
        0.000000
  0
ARC
  8
0
 10
     -139.182431
 20
       -4.500000
 30
        0.000000
 40
        0.500000
 50
      200.097738
 51
      270.000000
  0
LINE
  8
0
 10
     -141.361416
 20
        0.000000
 30
        0.000000
 11
     -139.651985
 21
       -4.671811
 31
        0.000000
  0
LINE
  8
0
 10
     -136.361416
 20
       -5.000000
 30
        0.000000
 11
     -139.182431
 21
       -5.000000
 31
        0.000000
  0
CIRCLE
  8
0
 10
      -60.500000
 20
       20.000000
 30
        0.000000
 40
        3.300000
  0
LINE
  8
0
 10
      -62.500000
 20
       20.000000
 30
        0.000000
 11
      -58.500000
 21
       20.000000
 31
        0.000000
  0
LINE
  8
0
 10
      -60.500000
 20
       18.000000
 30
        0.000000
 11
      -60.500000
 21
       22.000000
 31
        0.000000
  0
ARC
  8
0
 10
      -67.500000
 20
        3.169733
 30
        0.000000
 40
        0.500000
 50
      180.000005
 51
      270.000000
  0
LINE
  8
0
 10
      -67.500000
 20
        2.669733
 30
        0.000000
 11
      -65.500000
 21
        2.669733
 31
        0.000000
  0
ARC
  8
0
 10
      -64.000000
 20
        1.500000
 30
        0.000000
 40
        1.500000
 50
      180.000005
 51
      270.000000
  0
LINE
  8
0
 10
      -55.000000
 20
        0.000000
 30
        0.000000
 11
      -53.290569
 21
       -4.671811
 31
        0.000000
  0
LINE
  8
0
 10
      -50.000000
 20
       -5.000000
 30
        0.000000
 11
      -52.821015
 21
       -5.000000
 31
        0.000000
  0
ARC
  8
0
 10
      -52.821015
 20
       -4.500000
 30
        0.000000
 40
        0.500000
 50
      200.097738
 51
      270.000000
  0
CIRCLE
  8
0
 10
      -40.000000
 20
        9.000000
 30
        0.000000
 40
        1.500000
  0
CIRCLE
  8
0
 10
      -40.000000
 20
        9.000000
 30
        0.000000
 40
        1.200000
  0
LINE
  8
0
 10
      -45.000000
 20
        0.000000
 30
        0.000000
 11
      -46.709431
 21
       -4.671811
 31
        0.000000
  0
ARC
  8
0
 10
      -47.178985
 20
       -4.500000
 30
        0.000000
 40
        0.500000
 50
      270.000000
 51
      339.902267
  0
ARC
  8
0
 10
     -130.361416
 20
       58.500000
 30
        0.000000
 40
        1.500000
 50
        0.000000
 51
       90.000000
  0
ARC
  8
0
 10
     -132.861426
 20
       37.669745
 30
        0.000000
 40
        1.000000
 50
        0.000000
 51
       90.000000
  0
LINE
  8
0
 10
     -164.111426
 20
       34.399960
 30
        0.000000
 11
     -164.111426
 21
       29.599980
 31
        0.000000
  0
LINE
  8
0
 10
     -161.361426
 20
       33.749990
 30
        0.000000
 11
     -161.361426
 21
       30.250010
 31
        0.000000
  0
LINE
  8
0
 10
     -164.411426
 20
       29.299980
 30
        0.000000
 11
     -164.111426
 21
       29.599980
 31
        0.000000
  0
LINE
  8
6
 10
     -165.236426
 20
       33.199990
 30
        0.000000
 11
     -165.236426
 21
       32.699960
 31
        0.000000
  0
LINE
  8
6
 10
     -165.236426
 20
       33.199990
 30
        0.000000
 11
     -164.736436
 21
       33.699960
 31
        0.000000
  0
LINE
  8
0
 10
     -161.361426
 20
       30.250010
 30
        0.000000
 11
     -164.111426
 21
       30.250010
 31
        0.000000
  0
LINE
  8
6
 10
     -165.236426
 20
       30.299980
 30
        0.000000
 11
     -164.986436
 21
       29.299980
 31
        0.000000
  0
LINE
  8
6
 10
     -164.736436
 20
       33.699960
 30
        0.000000
 11
     -164.736436
 21
       32.199970
 31
        0.000000
  0
LINE
  8
6
 10
     -165.236426
 20
       32.699960
 30
        0.000000
 11
     -164.736436
 21
       32.199970
 31
        0.000000
  0
LINE
  8
0
 10
     -164.411426
 20
       34.699960
 30
        0.000000
 11
     -164.111426
 21
       34.399960
 31
        0.000000
  0
LINE
  8
0
 10
     -161.361426
 20
       33.749990
 30
        0.000000
 11
     -164.111426
 21
       33.749990
 31
        0.000000
  0
LINE
  8
0
 10
     -165.361416
 20
       35.699970
 30
        0.000000
 11
     -165.361416
 21
       34.699960
 31
        0.000000
  0
LINE
  8
0
 10
     -169.611426
 20
       34.399960
 30
        0.000000
 11
     -169.611426
 21
       29.599980
 31
        0.000000
  0
LINE
  8
0
 10
     -169.611426
 20
       29.599980
 30
        0.000000
 11
     -169.311426
 21
       29.299980
 31
        0.000000
  0
LINE
  8
6
 10
     -167.486436
 20
       32.699960
 30
        0.000000
 11
     -168.486436
 21
       32.699960
 31
        0.000000
  0
LINE
  8
6
 10
     -167.486436
 20
       33.199990
 30
        0.000000
 11
     -168.486436
 21
       33.199990
 31
        0.000000
  0
LINE
  8
6
 10
     -166.986426
 20
       33.699960
 30
        0.000000
 11
     -168.986426
 21
       33.699960
 31
        0.000000
  0
LINE
  8
6
 10
     -167.486436
 20
       30.299980
 30
        0.000000
 11
     -168.486436
 21
       30.299980
 31
        0.000000
  0
LINE
  8
6
 10
     -166.986426
 20
       32.199970
 30
        0.000000
 11
     -168.986426
 21
       32.199970
 31
        0.000000
  0
LINE
  8
6
 10
     -168.486436
 20
       33.199990
 30
        0.000000
 11
     -168.486436
 21
       32.699960
 31
        0.000000
  0
LINE
  8
6
 10
     -168.486436
 20
       33.199990
 30
        0.000000
 11
     -168.986426
 21
       33.699960
 31
        0.000000
  0
LINE
  8
6
 10
     -168.486436
 20
       30.299980
 30
        0.000000
 11
     -168.736426
 21
       29.299980
 31
        0.000000
  0
LINE
  8
6
 10
     -168.986426
 20
       33.699960
 30
        0.000000
 11
     -168.986426
 21
       32.199970
 31
        0.000000
  0
LINE
  8
6
 10
     -168.486436
 20
       32.699960
 30
        0.000000
 11
     -168.986426
 21
       32.199970
 31
        0.000000
  0
LINE
  8
6
 10
     -166.236426
 20
       33.199990
 30
        0.000000
 11
     -166.736436
 21
       33.699960
 31
        0.000000
  0
LINE
  8
6
 10
     -167.486436
 20
       33.199990
 30
        0.000000
 11
     -167.486436
 21
       32.699960
 31
        0.000000
  0
LINE
  8
6
 10
     -167.486436
 20
       33.199990
 30
        0.000000
 11
     -166.986426
 21
       33.699960
 31
        0.000000
  0
LINE
  8
6
 10
     -166.236426
 20
       33.199990
 30
        0.000000
 11
     -166.236426
 21
       32.699960
 31
        0.000000
  0
LINE
  8
6
 10
     -166.236426
 20
       30.299980
 30
        0.000000
 11
     -166.486416
 21
       29.299980
 31
        0.000000
  0
LINE
  8
6
 10
     -167.486436
 20
       30.299980
 30
        0.000000
 11
     -167.236426
 21
       29.299980
 31
        0.000000
  0
LINE
  8
6
 10
     -166.986426
 20
       33.699960
 30
        0.000000
 11
     -166.986426
 21
       32.199970
 31
        0.000000
  0
LINE
  8
6
 10
     -166.736436
 20
       33.699960
 30
        0.000000
 11
     -166.736436
 21
       32.199970
 31
        0.000000
  0
LINE
  8
6
 10
     -167.486436
 20
       32.699960
 30
        0.000000
 11
     -166.986426
 21
       32.199970
 31
        0.000000
  0
LINE
  8
6
 10
     -166.236426
 20
       32.699960
 30
        0.000000
 11
     -166.736436
 21
       32.199970
 31
        0.000000
  0
LINE
  8
0
 10
     -169.311426
 20
       34.699960
 30
        0.000000
 11
     -169.611426
 21
       34.399960
 31
        0.000000
  0
LINE
  8
0
 10
     -168.361416
 20
       35.699970
 30
        0.000000
 11
     -168.361416
 21
       34.699960
 31
        0.000000
  0
LINE
  8
0
 10
     -164.411426
 20
       34.699960
 30
        0.000000
 11
     -169.311426
 21
       34.699960
 31
        0.000000
  0
LINE
  8
0
 10
     -164.411426
 20
       29.299980
 30
        0.000000
 11
     -169.311426
 21
       29.299980
 31
        0.000000
  0
LINE
  8
6
 10
     -164.736436
 20
       33.699960
 30
        0.000000
 11
     -166.736436
 21
       33.699960
 31
        0.000000
  0
LINE
  8
6
 10
     -165.236426
 20
       32.699960
 30
        0.000000
 11
     -166.236426
 21
       32.699960
 31
        0.000000
  0
LINE
  8
6
 10
     -165.236426
 20
       33.199990
 30
        0.000000
 11
     -166.236426
 21
       33.199990
 31
        0.000000
  0
LINE
  8
6
 10
     -164.736436
 20
       32.199970
 30
        0.000000
 11
     -166.736436
 21
       32.199970
 31
        0.000000
  0
LINE
  8
6
 10
     -165.236426
 20
       30.299980
 30
        0.000000
 11
     -166.236426
 21
       30.299980
 31
        0.000000
  0
LINE
  8
0
 10
     -165.361416
 20
       35.699970
 30
        0.000000
 11
     -168.361416
 21
       35.699970
 31
        0.000000
  0
LINE
  8
0
 10
     -172.361406
 20
       33.749990
 30
        0.000000
 11
     -172.361406
 21
       30.250010
 31
        0.000000
  0
LINE
  8
0
 10
     -169.611426
 20
       30.250010
 30
        0.000000
 11
     -172.361406
 21
       30.250010
 31
        0.000000
  0
LINE
  8
0
 10
     -169.611426
 20
       33.749990
 30
        0.000000
 11
     -172.361406
 21
       33.749990
 31
        0.000000
  0
LINE
  8
0
 10
     -169.611426
 20
       48.749990
 30
        0.000000
 11
     -172.361406
 21
       48.749990
 31
        0.000000
  0
LINE
  8
0
 10
     -169.611426
 20
       45.250010
 30
        0.000000
 11
     -172.361406
 21
       45.250010
 31
        0.000000
  0
LINE
  8
0
 10
     -172.361406
 20
       48.749990
 30
        0.000000
 11
     -172.361406
 21
       45.250010
 31
        0.000000
  0
LINE
  8
0
 10
     -165.361416
 20
       50.699970
 30
        0.000000
 11
     -165.361416
 21
       49.699960
 31
        0.000000
  0
LINE
  8
0
 10
     -161.361426
 20
       48.749990
 30
        0.000000
 11
     -164.111426
 21
       48.749990
 31
        0.000000
  0
LINE
  8
0
 10
     -164.411426
 20
       49.699960
 30
        0.000000
 11
     -164.111426
 21
       49.399960
 31
        0.000000
  0
LINE
  8
6
 10
     -165.236426
 20
       47.699960
 30
        0.000000
 11
     -164.736436
 21
       47.199970
 31
        0.000000
  0
LINE
  8
6
 10
     -164.736436
 20
       48.699960
 30
        0.000000
 11
     -164.736436
 21
       47.199970
 31
        0.000000
  0
LINE
  8
6
 10
     -165.236426
 20
       45.299980
 30
        0.000000
 11
     -164.986436
 21
       44.299980
 31
        0.000000
  0
LINE
  8
0
 10
     -161.361426
 20
       45.250010
 30
        0.000000
 11
     -164.111426
 21
       45.250010
 31
        0.000000
  0
LINE
  8
6
 10
     -165.236426
 20
       48.199990
 30
        0.000000
 11
     -164.736436
 21
       48.699960
 31
        0.000000
  0
LINE
  8
6
 10
     -165.236426
 20
       48.199990
 30
        0.000000
 11
     -165.236426
 21
       47.699960
 31
        0.000000
  0
LINE
  8
0
 10
     -164.411426
 20
       44.299980
 30
        0.000000
 11
     -164.111426
 21
       44.599980
 31
        0.000000
  0
LINE
  8
0
 10
     -161.361426
 20
       48.749990
 30
        0.000000
 11
     -161.361426
 21
       45.250010
 31
        0.000000
  0
LINE
  8
0
 10
     -164.111426
 20
       49.399960
 30
        0.000000
 11
     -164.111426
 21
       44.599980
 31
        0.000000
  0
LINE
  8
0
 10
     -168.361416
 20
       50.699970
 30
        0.000000
 11
     -168.361416
 21
       49.699960
 31
        0.000000
  0
LINE
  8
0
 10
     -169.311426
 20
       49.699960
 30
        0.000000
 11
     -169.611426
 21
       49.399960
 31
        0.000000
  0
LINE
  8
6
 10
     -166.236426
 20
       47.699960
 30
        0.000000
 11
     -166.736436
 21
       47.199970
 31
        0.000000
  0
LINE
  8
6
 10
     -167.486436
 20
       47.699960
 30
        0.000000
 11
     -166.986426
 21
       47.199970
 31
        0.000000
  0
LINE
  8
6
 10
     -166.736436
 20
       48.699960
 30
        0.000000
 11
     -166.736436
 21
       47.199970
 31
        0.000000
  0
LINE
  8
6
 10
     -166.986426
 20
       48.699960
 30
        0.000000
 11
     -166.986426
 21
       47.199970
 31
        0.000000
  0
LINE
  8
6
 10
     -167.486436
 20
       45.299980
 30
        0.000000
 11
     -167.236426
 21
       44.299980
 31
        0.000000
  0
LINE
  8
6
 10
     -166.236426
 20
       45.299980
 30
        0.000000
 11
     -166.486416
 21
       44.299980
 31
        0.000000
  0
LINE
  8
6
 10
     -166.236426
 20
       48.199990
 30
        0.000000
 11
     -166.236426
 21
       47.699960
 31
        0.000000
  0
LINE
  8
6
 10
     -167.486436
 20
       48.199990
 30
        0.000000
 11
     -166.986426
 21
       48.699960
 31
        0.000000
  0
LINE
  8
6
 10
     -167.486436
 20
       48.199990
 30
        0.000000
 11
     -167.486436
 21
       47.699960
 31
        0.000000
  0
LINE
  8
6
 10
     -166.236426
 20
       48.199990
 30
        0.000000
 11
     -166.736436
 21
       48.699960
 31
        0.000000
  0
LINE
  8
6
 10
     -168.486436
 20
       47.699960
 30
        0.000000
 11
     -168.986426
 21
       47.199970
 31
        0.000000
  0
LINE
  8
6
 10
     -168.986426
 20
       48.699960
 30
        0.000000
 11
     -168.986426
 21
       47.199970
 31
        0.000000
  0
LINE
  8
6
 10
     -168.486436
 20
       45.299980
 30
        0.000000
 11
     -168.736426
 21
       44.299980
 31
        0.000000
  0
LINE
  8
6
 10
     -168.486436
 20
       48.199990
 30
        0.000000
 11
     -168.986426
 21
       48.699960
 31
        0.000000
  0
LINE
  8
6
 10
     -168.486436
 20
       48.199990
 30
        0.000000
 11
     -168.486436
 21
       47.699960
 31
        0.000000
  0
LINE
  8
6
 10
     -166.986426
 20
       47.199970
 30
        0.000000
 11
     -168.986426
 21
       47.199970
 31
        0.000000
  0
LINE
  8
6
 10
     -167.486436
 20
       45.299980
 30
        0.000000
 11
     -168.486436
 21
       45.299980
 31
        0.000000
  0
LINE
  8
6
 10
     -166.986426
 20
       48.699960
 30
        0.000000
 11
     -168.986426
 21
       48.699960
 31
        0.000000
  0
LINE
  8
6
 10
     -167.486436
 20
       48.199990
 30
        0.000000
 11
     -168.486436
 21
       48.199990
 31
        0.000000
  0
LINE
  8
6
 10
     -167.486436
 20
       47.699960
 30
        0.000000
 11
     -168.486436
 21
       47.699960
 31
        0.000000
  0
LINE
  8
0
 10
     -169.611426
 20
       44.599980
 30
        0.000000
 11
     -169.311426
 21
       44.299980
 31
        0.000000
  0
LINE
  8
0
 10
     -169.611426
 20
       49.399960
 30
        0.000000
 11
     -169.611426
 21
       44.599980
 31
        0.000000
  0
LINE
  8
0
 10
     -165.361416
 20
       50.699970
 30
        0.000000
 11
     -168.361416
 21
       50.699970
 31
        0.000000
  0
LINE
  8
6
 10
     -165.236426
 20
       45.299980
 30
        0.000000
 11
     -166.236426
 21
       45.299980
 31
        0.000000
  0
LINE
  8
6
 10
     -164.736436
 20
       47.199970
 30
        0.000000
 11
     -166.736436
 21
       47.199970
 31
        0.000000
  0
LINE
  8
6
 10
     -165.236426
 20
       48.199990
 30
        0.000000
 11
     -166.236426
 21
       48.199990
 31
        0.000000
  0
LINE
  8
6
 10
     -165.236426
 20
       47.699960
 30
        0.000000
 11
     -166.236426
 21
       47.699960
 31
        0.000000
  0
LINE
  8
6
 10
     -164.736436
 20
       48.699960
 30
        0.000000
 11
     -166.736436
 21
       48.699960
 31
        0.000000
  0
LINE
  8
0
 10
     -164.411426
 20
       44.299980
 30
        0.000000
 11
     -169.311426
 21
       44.299980
 31
        0.000000
  0
LINE
  8
0
 10
     -164.411426
 20
       49.699960
 30
        0.000000
 11
     -169.311426
 21
       49.699960
 31
        0.000000
  0
TEXT
  8
4
 10
     -170.721246
 20
       37.543410
 30
        0.000000
 40
        1.875000
  1
ＬＡＭＰ　２
 50
        0.000000
 41
        1.000000
 51
        0.000000
  7
BIGFONT
  0
TEXT
  8
4
 10
     -170.721246
 20
       53.021062
 30
        0.000000
 40
        1.875000
  1
ＬＡＭＰ　１
 50
        0.000000
 41
        1.000000
 51
        0.000000
  7
BIGFONT
  0
LINE
  8
0
 10
     -148.172121
 20
       48.555257
 30
        0.000000
 11
     -150.672121
 21
       48.555257
 31
        0.000000
  0
LINE
  8
0
 10
     -148.172121
 20
       45.598709
 30
        0.000000
 11
     -150.672121
 21
       45.598709
 31
        0.000000
  0
LINE
  8
0
 10
     -150.672121
 20
       48.555257
 30
        0.000000
 11
     -150.672121
 21
       45.598709
 31
        0.000000
  0
LINE
  8
0
 10
     -137.550731
 20
       45.598709
 30
        0.000000
 11
     -135.050731
 21
       45.598709
 31
        0.000000
  0
LINE
  8
0
 10
     -137.550731
 20
       48.555257
 30
        0.000000
 11
     -135.050731
 21
       48.555257
 31
        0.000000
  0
LINE
  8
0
 10
     -137.550731
 20
       49.494611
 30
        0.000000
 11
     -137.550731
 21
       44.694621
 31
        0.000000
  0
LINE
  8
0
 10
     -148.172121
 20
       49.494611
 30
        0.000000
 11
     -148.172121
 21
       44.694621
 31
        0.000000
  0
LINE
  8
6
 10
     -143.040889
 20
       48.794601
 30
        0.000000
 11
     -145.040889
 21
       48.794601
 31
        0.000000
  0
LINE
  8
6
 10
     -143.540879
 20
       48.294631
 30
        0.000000
 11
     -143.040889
 21
       48.794601
 31
        0.000000
  0
LINE
  8
6
 10
     -143.040889
 20
       47.294611
 30
        0.000000
 11
     -145.040889
 21
       47.294611
 31
        0.000000
  0
LINE
  8
6
 10
     -143.540879
 20
       45.394621
 30
        0.000000
 11
     -143.290889
 21
       44.394621
 31
        0.000000
  0
LINE
  8
6
 10
     -143.540879
 20
       47.794601
 30
        0.000000
 11
     -143.040889
 21
       47.294611
 31
        0.000000
  0
LINE
  8
0
 10
     -137.850731
 20
       44.394621
 30
        0.000000
 11
     -147.872121
 21
       44.394621
 31
        0.000000
  0
LINE
  8
0
 10
     -148.172121
 20
       44.694621
 30
        0.000000
 11
     -147.872121
 21
       44.394621
 31
        0.000000
  0
LINE
  8
6
 10
     -145.790889
 20
       48.294631
 30
        0.000000
 11
     -145.790889
 21
       47.794601
 31
        0.000000
  0
LINE
  8
6
 10
     -145.790889
 20
       48.294631
 30
        0.000000
 11
     -145.290879
 21
       48.794601
 31
        0.000000
  0
LINE
  8
6
 10
     -145.290879
 20
       48.794601
 30
        0.000000
 11
     -145.290879
 21
       47.294611
 31
        0.000000
  0
LINE
  8
6
 10
     -145.790889
 20
       47.794601
 30
        0.000000
 11
     -145.290879
 21
       47.294611
 31
        0.000000
  0
LINE
  8
6
 10
     -145.790889
 20
       47.794601
 30
        0.000000
 11
     -146.790889
 21
       47.794601
 31
        0.000000
  0
LINE
  8
6
 10
     -145.790889
 20
       48.294631
 30
        0.000000
 11
     -146.790889
 21
       48.294631
 31
        0.000000
  0
LINE
  8
6
 10
     -145.290879
 20
       48.794601
 30
        0.000000
 11
     -147.290879
 21
       48.794601
 31
        0.000000
  0
LINE
  8
6
 10
     -145.290879
 20
       47.294611
 30
        0.000000
 11
     -147.290879
 21
       47.294611
 31
        0.000000
  0
LINE
  8
6
 10
     -146.790889
 20
       48.294631
 30
        0.000000
 11
     -146.790889
 21
       47.794601
 31
        0.000000
  0
LINE
  8
6
 10
     -146.790889
 20
       48.294631
 30
        0.000000
 11
     -147.290879
 21
       48.794601
 31
        0.000000
  0
LINE
  8
6
 10
     -147.290879
 20
       48.794601
 30
        0.000000
 11
     -147.290879
 21
       47.294611
 31
        0.000000
  0
LINE
  8
6
 10
     -146.790889
 20
       47.794601
 30
        0.000000
 11
     -147.290879
 21
       47.294611
 31
        0.000000
  0
LINE
  8
6
 10
     -145.790889
 20
       45.394621
 30
        0.000000
 11
     -146.790889
 21
       45.394621
 31
        0.000000
  0
LINE
  8
6
 10
     -146.790889
 20
       45.394621
 30
        0.000000
 11
     -147.040879
 21
       44.394621
 31
        0.000000
  0
LINE
  8
6
 10
     -145.790889
 20
       45.394621
 30
        0.000000
 11
     -145.540879
 21
       44.394621
 31
        0.000000
  0
LINE
  8
6
 10
     -144.540879
 20
       48.294631
 30
        0.000000
 11
     -145.040889
 21
       48.794601
 31
        0.000000
  0
LINE
  8
6
 10
     -144.540879
 20
       48.294631
 30
        0.000000
 11
     -144.540879
 21
       47.794601
 31
        0.000000
  0
LINE
  8
6
 10
     -143.540879
 20
       48.294631
 30
        0.000000
 11
     -143.540879
 21
       47.794601
 31
        0.000000
  0
LINE
  8
6
 10
     -143.540879
 20
       47.794601
 30
        0.000000
 11
     -144.540879
 21
       47.794601
 31
        0.000000
  0
LINE
  8
6
 10
     -143.540879
 20
       48.294631
 30
        0.000000
 11
     -144.540879
 21
       48.294631
 31
        0.000000
  0
LINE
  8
6
 10
     -144.540879
 20
       45.394621
 30
        0.000000
 11
     -144.790869
 21
       44.394621
 31
        0.000000
  0
LINE
  8
6
 10
     -143.540879
 20
       45.394621
 30
        0.000000
 11
     -144.540879
 21
       45.394621
 31
        0.000000
  0
LINE
  8
6
 10
     -145.040889
 20
       48.794601
 30
        0.000000
 11
     -145.040889
 21
       47.294611
 31
        0.000000
  0
LINE
  8
6
 10
     -144.540879
 20
       47.794601
 30
        0.000000
 11
     -145.040889
 21
       47.294611
 31
        0.000000
  0
LINE
  8
0
 10
     -137.850731
 20
       44.394621
 30
        0.000000
 11
     -137.550731
 21
       44.694621
 31
        0.000000
  0
LINE
  8
6
 10
     -139.931962
 20
       48.294631
 30
        0.000000
 11
     -139.931962
 21
       47.794601
 31
        0.000000
  0
LINE
  8
6
 10
     -139.931962
 20
       48.294631
 30
        0.000000
 11
     -140.431972
 21
       48.794601
 31
        0.000000
  0
LINE
  8
6
 10
     -140.431972
 20
       48.794601
 30
        0.000000
 11
     -140.431972
 21
       47.294611
 31
        0.000000
  0
LINE
  8
6
 10
     -139.931962
 20
       47.794601
 30
        0.000000
 11
     -140.431972
 21
       47.294611
 31
        0.000000
  0
LINE
  8
6
 10
     -139.931962
 20
       47.794601
 30
        0.000000
 11
     -138.931962
 21
       47.794601
 31
        0.000000
  0
LINE
  8
6
 10
     -139.931962
 20
       48.294631
 30
        0.000000
 11
     -138.931962
 21
       48.294631
 31
        0.000000
  0
LINE
  8
6
 10
     -140.431972
 20
       48.794601
 30
        0.000000
 11
     -138.431972
 21
       48.794601
 31
        0.000000
  0
LINE
  8
6
 10
     -140.431972
 20
       47.294611
 30
        0.000000
 11
     -138.431972
 21
       47.294611
 31
        0.000000
  0
LINE
  8
6
 10
     -138.931962
 20
       48.294631
 30
        0.000000
 11
     -138.931962
 21
       47.794601
 31
        0.000000
  0
LINE
  8
6
 10
     -138.931962
 20
       48.294631
 30
        0.000000
 11
     -138.431972
 21
       48.794601
 31
        0.000000
  0
LINE
  8
6
 10
     -138.431972
 20
       48.794601
 30
        0.000000
 11
     -138.431972
 21
       47.294611
 31
        0.000000
  0
LINE
  8
6
 10
     -138.931962
 20
       47.794601
 30
        0.000000
 11
     -138.431972
 21
       47.294611
 31
        0.000000
  0
LINE
  8
6
 10
     -139.931962
 20
       45.394621
 30
        0.000000
 11
     -138.931962
 21
       45.394621
 31
        0.000000
  0
LINE
  8
6
 10
     -138.931962
 20
       45.394621
 30
        0.000000
 11
     -138.681972
 21
       44.394621
 31
        0.000000
  0
LINE
  8
6
 10
     -139.931962
 20
       45.394621
 30
        0.000000
 11
     -140.181972
 21
       44.394621
 31
        0.000000
  0
LINE
  8
6
 10
     -142.681962
 20
       48.794601
 30
        0.000000
 11
     -140.681962
 21
       48.794601
 31
        0.000000
  0
LINE
  8
6
 10
     -141.181972
 20
       48.294631
 30
        0.000000
 11
     -140.681962
 21
       48.794601
 31
        0.000000
  0
LINE
  8
6
 10
     -141.181972
 20
       48.294631
 30
        0.000000
 11
     -141.181972
 21
       47.794601
 31
        0.000000
  0
LINE
  8
6
 10
     -142.181972
 20
       48.294631
 30
        0.000000
 11
     -142.181972
 21
       47.794601
 31
        0.000000
  0
LINE
  8
6
 10
     -142.181972
 20
       47.794601
 30
        0.000000
 11
     -141.181972
 21
       47.794601
 31
        0.000000
  0
LINE
  8
6
 10
     -142.181972
 20
       48.294631
 30
        0.000000
 11
     -141.181972
 21
       48.294631
 31
        0.000000
  0
LINE
  8
6
 10
     -142.181972
 20
       48.294631
 30
        0.000000
 11
     -142.681962
 21
       48.794601
 31
        0.000000
  0
LINE
  8
6
 10
     -142.681962
 20
       47.294611
 30
        0.000000
 11
     -140.681962
 21
       47.294611
 31
        0.000000
  0
LINE
  8
6
 10
     -141.181972
 20
       45.394621
 30
        0.000000
 11
     -140.931982
 21
       44.394621
 31
        0.000000
  0
LINE
  8
6
 10
     -142.181972
 20
       45.394621
 30
        0.000000
 11
     -141.181972
 21
       45.394621
 31
        0.000000
  0
LINE
  8
6
 10
     -142.181972
 20
       45.394621
 30
        0.000000
 11
     -142.431962
 21
       44.394621
 31
        0.000000
  0
LINE
  8
6
 10
     -140.681962
 20
       48.794601
 30
        0.000000
 11
     -140.681962
 21
       47.294611
 31
        0.000000
  0
LINE
  8
6
 10
     -142.681962
 20
       48.794601
 30
        0.000000
 11
     -142.681962
 21
       47.294611
 31
        0.000000
  0
LINE
  8
6
 10
     -141.181972
 20
       47.794601
 30
        0.000000
 11
     -140.681962
 21
       47.294611
 31
        0.000000
  0
LINE
  8
6
 10
     -142.181972
 20
       47.794601
 30
        0.000000
 11
     -142.681962
 21
       47.294611
 31
        0.000000
  0
LINE
  8
6
 10
     -143.040889
 20
       48.794601
 30
        0.000000
 11
     -143.040889
 21
       47.294611
 31
        0.000000
  0
LINE
  8
0
 10
     -141.361416
 20
       50.794621
 30
        0.000000
 11
     -144.361416
 21
       50.794621
 31
        0.000000
  0
LINE
  8
0
 10
     -137.850731
 20
       49.794611
 30
        0.000000
 11
     -147.872121
 21
       49.794611
 31
        0.000000
  0
LINE
  8
0
 10
     -148.172121
 20
       49.494611
 30
        0.000000
 11
     -147.872121
 21
       49.794611
 31
        0.000000
  0
LINE
  8
0
 10
     -144.361416
 20
       50.794621
 30
        0.000000
 11
     -144.361416
 21
       49.794611
 31
        0.000000
  0
LINE
  8
0
 10
     -137.850731
 20
       49.794611
 30
        0.000000
 11
     -137.550731
 21
       49.494611
 31
        0.000000
  0
LINE
  8
0
 10
     -141.361416
 20
       50.794621
 30
        0.000000
 11
     -141.361416
 21
       49.794611
 31
        0.000000
  0
LINE
  8
0
 10
     -135.050731
 20
       48.555257
 30
        0.000000
 11
     -135.050731
 21
       45.598709
 31
        0.000000
  0
TEXT
  8
4
 10
     -148.975295
 20
       53.021062
 30
        0.000000
 40
        1.875000
  1
ＥＸＴ　ＣＯＮＴ
 50
        0.000000
 41
        1.000000
 51
        0.000000
  7
BIGFONT
  0
TEXT
  8
4
 10
     -148.067581
 20
       40.247734
 30
        0.000000
 40
        1.875000
  1
ＡＣ１００Ｖ
 50
        0.000000
 41
        1.000000
 51
        0.000000
  7
BIGFONT
  0
LINE
  8
0
 10
     -132.861426
 20
       38.669748
 30
        0.000000
 11
     -153.861396
 21
       38.669748
 31
        0.000000
  0
ARC
  8
0
 10
     -153.861396
 20
       37.669745
 30
        0.000000
 40
        1.000000
 50
       90.000000
 51
      180.000005
  0
LINE
  8
0
 10
     -139.520156
 20
       26.660800
 30
        0.000000
 11
     -139.520156
 21
       28.660807
 31
        0.000000
  0
LINE
  8
0
 10
     -143.520176
 20
       28.660807
 30
        0.000000
 11
     -143.520176
 21
       26.660800
 31
        0.000000
  0
LINE
  8
0
 10
     -139.520156
 20
       28.660807
 30
        0.000000
 11
     -143.520176
 21
       28.660807
 31
        0.000000
  0
LINE
  8
0
 10
     -143.520176
 20
       26.660800
 30
        0.000000
 11
     -139.520156
 21
       26.660800
 31
        0.000000
  0
ARC
  8
0
 10
     -136.028086
 20
       31.669725
 30
        0.000000
 40
        1.000000
 50
        0.000000
 51
       90.000000
  0
LINE
  8
0
 10
     -147.194756
 20
       32.669728
 30
        0.000000
 11
     -136.028086
 21
       32.669728
 31
        0.000000
  0
LINE
  8
0
 10
     -151.028086
 20
       27.669761
 30
        0.000000
 11
     -147.194756
 21
       32.669728
 31
        0.000000
  0
ARC
  8
0
 10
     -130.361416
 20
       58.500000
 30
        0.000000
 40
        0.500000
 50
        0.000000
 51
       90.000000
  0
LINE
  8
0
 10
      -75.500081
 20
       34.675025
 30
        0.000000
 11
      -68.000000
 21
       34.675025
 31
        0.000000
  0
LINE
  8
0
 10
      -65.500000
 20
       44.324975
 30
        0.000000
 11
      -75.500081
 21
       44.325205
 31
        0.000000
  0
LINE
  8
0
 10
      -75.500081
 20
       49.675025
 30
        0.000000
 11
      -65.500081
 21
       49.675025
 31
        0.000000
  0
LINE
  8
0
 10
      -68.000000
 20
       29.325033
 30
        0.000000
 11
      -75.500081
 21
       29.325205
 31
        0.000000
  0
LINE
  8
0
 10
      -74.307101
 20
       35.675025
 30
        0.000000
 11
      -73.307091
 21
       34.675025
 31
        0.000000
  0
LINE
  8
0
 10
      -74.307101
 20
       50.675025
 30
        0.000000
 11
      -73.307091
 21
       49.675025
 31
        0.000000
  0
LINE
  8
0
 10
      -75.500081
 20
       49.675025
 30
        0.000000
 11
      -75.500081
 21
       44.324975
 31
        0.000000
  0
LINE
  8
0
 10
      -75.500081
 20
       34.675025
 30
        0.000000
 11
      -74.307101
 21
       35.675025
 31
        0.000000
  0
LINE
  8
0
 10
      -75.500081
 20
       49.675025
 30
        0.000000
 11
      -74.307101
 21
       50.675025
 31
        0.000000
  0
LINE
  8
0
 10
      -75.500081
 20
       34.675025
 30
        0.000000
 11
      -75.500081
 21
       29.324975
 31
        0.000000
  0
LINE
  8
0
 10
      -71.642561
 20
       45.225015
 30
        0.000000
 11
      -65.500081
 21
       45.225015
 31
        0.000000
  0
LINE
  8
0
 10
      -71.642561
 20
       48.725005
 30
        0.000000
 11
      -65.500081
 21
       48.725005
 31
        0.000000
  0
LINE
  8
0
 10
      -71.642561
 20
       30.225015
 30
        0.000000
 11
      -68.000000
 21
       30.225015
 31
        0.000000
  0
LINE
  8
0
 10
      -71.642561
 20
       33.725005
 30
        0.000000
 11
      -68.000000
 21
       33.725005
 31
        0.000000
  0
LINE
  8
0
 10
      -71.642561
 20
       45.225015
 30
        0.000000
 11
      -71.642561
 21
       48.725005
 31
        0.000000
  0
LINE
  8
0
 10
      -71.642561
 20
       30.225015
 30
        0.000000
 11
      -71.642561
 21
       33.725005
 31
        0.000000
  0
ARC
  8
0
 10
      -67.500000
 20
       38.169748
 30
        0.000000
 40
        0.500000
 50
       90.000000
 51
      180.000005
  0
LINE
  8
0
 10
      -65.500000
 20
       38.669748
 30
        0.000000
 11
      -67.500000
 21
       38.669748
 31
        0.000000
  0
LINE
  8
0
 10
      -75.500081
 20
      143.519812
 30
        0.000000
 11
      -65.500000
 21
      143.519812
 31
        0.000000
  0
LINE
  8
0
 10
      -75.500081
 20
      142.269802
 30
        0.000000
 11
      -73.307091
 21
      142.269802
 31
        0.000000
  0
LINE
  8
0
 10
      -75.500081
 20
      139.269802
 30
        0.000000
 11
      -73.307091
 21
      139.269802
 31
        0.000000
  0
LINE
  8
0
 10
      -75.500081
 20
      138.019812
 30
        0.000000
 11
      -65.500000
 21
      138.019812
 31
        0.000000
  0
LINE
  8
0
 10
      -75.500081
 20
      125.403896
 30
        0.000000
 11
      -65.500000
 21
      125.403896
 31
        0.000000
  0
LINE
  8
0
 10
      -74.307101
 20
      139.269802
 30
        0.000000
 11
      -74.307101
 21
      142.269802
 31
        0.000000
  0
LINE
  8
0
 10
      -75.500081
 20
      138.019812
 30
        0.000000
 11
      -75.500081
 21
      143.519812
 31
        0.000000
  0
LINE
  8
0
 10
      -67.097732
 20
      135.269832
 30
        0.000000
 11
      -65.500000
 21
      136.200012
 31
        0.000000
  0
LINE
  8
0
 10
      -67.097732
 20
      146.269792
 30
        0.000000
 11
      -65.500000
 21
      145.339613
 31
        0.000000
  0
LINE
  8
0
 10
      -71.642561
 20
      143.519812
 30
        0.000000
 11
      -67.097732
 21
      146.269792
 31
        0.000000
  0
LINE
  8
0
 10
      -73.307091
 20
      139.269802
 30
        0.000000
 11
      -73.307091
 21
      142.269802
 31
        0.000000
  0
LINE
  8
0
 10
      -71.642561
 20
      138.019812
 30
        0.000000
 11
      -67.097732
 21
      135.269832
 31
        0.000000
  0
LINE
  8
0
 10
      -71.642561
 20
      125.403896
 30
        0.000000
 11
      -67.097732
 21
      128.153876
 31
        0.000000
  0
LINE
  8
0
 10
      -67.097732
 20
      128.153876
 30
        0.000000
 11
      -65.500000
 21
      126.496174
 31
        0.000000
  0
ARC
  8
0
 10
      -67.500000
 20
      128.603876
 30
        0.000000
 40
        0.500000
 50
       90.000000
 51
      180.000005
  0
LINE
  8
0
 10
      -67.500000
 20
      129.103876
 30
        0.000000
 11
      -65.500000
 21
      129.103876
 31
        0.000000
  0
LINE
  8
0
 10
      -68.000000
 20
      127.607932
 30
        0.000000
 11
      -68.000000
 21
      128.603876
 31
        0.000000
  0
LINE
  8
0
 10
      -75.500081
 20
      120.103886
 30
        0.000000
 11
      -65.500000
 21
      120.103886
 31
        0.000000
  0
LINE
  8
0
 10
      -75.500081
 20
      117.103886
 30
        0.000000
 11
      -65.500000
 21
      117.103886
 31
        0.000000
  0
LINE
  8
0
 10
      -75.500081
 20
      111.803896
 30
        0.000000
 11
      -65.500000
 21
      111.803896
 31
        0.000000
  0
LINE
  8
0
 10
      -74.307101
 20
      117.103886
 30
        0.000000
 11
      -74.307101
 21
      120.103886
 31
        0.000000
  0
ARC
  8
0
 10
      -60.500000
 20
      104.848614
 30
        0.000000
 40
        3.744889
 50
      207.768041
 51
      332.231964
  0
LINE
  8
0
 10
      -71.642561
 20
      111.803896
 30
        0.000000
 11
      -67.097732
 21
      109.053916
 31
        0.000000
  0
LINE
  8
0
 10
      -67.097732
 20
      109.053916
 30
        0.000000
 11
      -65.500000
 21
      110.711617
 31
        0.000000
  0
LINE
  8
0
 10
      -73.307091
 20
      117.103886
 30
        0.000000
 11
      -73.307091
 21
      120.103886
 31
        0.000000
  0
ARC
  8
0
 10
      -67.500000
 20
      106.603906
 30
        0.000000
 40
        0.500000
 50
      180.000005
 51
      270.000000
  0
LINE
  8
0
 10
      -67.500000
 20
      106.103906
 30
        0.000000
 11
      -65.500000
 21
      106.103906
 31
        0.000000
  0
LINE
  8
0
 10
      -68.000000
 20
      106.603906
 30
        0.000000
 11
      -68.000000
 21
      109.599859
 31
        0.000000
  0
LINE
  8
0
 10
      -75.500081
 20
      111.803896
 30
        0.000000
 11
      -75.500081
 21
      125.403896
 31
        0.000000
  0
CIRCLE
  8
0
 10
       -4.500000
 20
       52.000000
 30
        0.000000
 40
        1.000000
  0
CIRCLE
  8
0
 10
      -28.500000
 20
       52.000000
 30
        0.000000
 40
        1.000000
  0
CIRCLE
  8
0
 10
      -30.000000
 20
       55.000000
 30
        0.000000
 40
        1.000000
  0
CIRCLE
  8
0
 10
      -31.500000
 20
       52.000000
 30
        0.000000
 40
        1.000000
  0
CIRCLE
  8
0
 10
      -30.000000
 20
       49.000000
 30
        0.000000
 40
        1.000000
  0
CIRCLE
  8
0
 10
      -40.000000
 20
       53.000000
 30
        0.000000
 40
        1.200000
  0
CIRCLE
  8
0
 10
      -40.000000
 20
       53.000000
 30
        0.000000
 40
        1.500000
  0
CIRCLE
  8
0
 10
      -33.000000
 20
       55.000000
 30
        0.000000
 40
        1.000000
  0
CIRCLE
  8
0
 10
      -33.000000
 20
       49.000000
 30
        0.000000
 40
        1.000000
  0
CIRCLE
  8
0
 10
      -15.000000
 20
       55.000000
 30
        0.000000
 40
        1.000000
  0
CIRCLE
  8
0
 10
      -21.000000
 20
       55.000000
 30
        0.000000
 40
        1.000000
  0
CIRCLE
  8
0
 10
      -24.000000
 20
       55.000000
 30
        0.000000
 40
        1.000000
  0
CIRCLE
  8
0
 10
      -18.000000
 20
       55.000000
 30
        0.000000
 40
        1.000000
  0
CIRCLE
  8
0
 10
      -12.000000
 20
       55.000000
 30
        0.000000
 40
        1.000000
  0
CIRCLE
  8
0
 10
       -9.000000
 20
       55.000000
 30
        0.000000
 40
        1.000000
  0
CIRCLE
  8
0
 10
       -6.000000
 20
       55.000000
 30
        0.000000
 40
        1.000000
  0
CIRCLE
  8
0
 10
      -27.000000
 20
       55.000000
 30
        0.000000
 40
        1.000000
  0
CIRCLE
  8
0
 10
      -27.000000
 20
       49.000000
 30
        0.000000
 40
        1.000000
  0
CIRCLE
  8
0
 10
      -25.500000
 20
       52.000000
 30
        0.000000
 40
        1.000000
  0
CIRCLE
  8
0
 10
       -7.500000
 20
       52.000000
 30
        0.000000
 40
        1.000000
  0
CIRCLE
  8
0
 10
      -15.000000
 20
       49.000000
 30
        0.000000
 40
        1.000000
  0
CIRCLE
  8
0
 10
      -13.500000
 20
       52.000000
 30
        0.000000
 40
        1.000000
  0
CIRCLE
  8
0
 10
      -16.500000
 20
       52.000000
 30
        0.000000
 40
        1.000000
  0
CIRCLE
  8
0
 10
      -19.500000
 20
       52.000000
 30
        0.000000
 40
        1.000000
  0
CIRCLE
  8
0
 10
      -21.000000
 20
       49.000000
 30
        0.000000
 40
        1.000000
  0
CIRCLE
  8
0
 10
      -24.000000
 20
       49.000000
 30
        0.000000
 40
        1.000000
  0
CIRCLE
  8
0
 10
      -22.500000
 20
       52.000000
 30
        0.000000
 40
        1.000000
  0
CIRCLE
  8
0
 10
      -18.000000
 20
       49.000000
 30
        0.000000
 40
        1.000000
  0
CIRCLE
  8
0
 10
      -10.500000
 20
       52.000000
 30
        0.000000
 40
        1.000000
  0
CIRCLE
  8
0
 10
      -12.000000
 20
       49.000000
 30
        0.000000
 40
        1.000000
  0
CIRCLE
  8
0
 10
       -9.000000
 20
       49.000000
 30
        0.000000
 40
        1.000000
  0
CIRCLE
  8
0
 10
       -6.000000
 20
       49.000000
 30
        0.000000
 40
        1.000000
  0
CIRCLE
  8
0
 10
       16.500000
 20
       52.000000
 30
        0.000000
 40
        1.000000
  0
CIRCLE
  8
0
 10
       15.000000
 20
       55.000000
 30
        0.000000
 40
        1.000000
  0
CIRCLE
  8
0
 10
       15.000000
 20
       49.000000
 30
        0.000000
 40
        1.000000
  0
CIRCLE
  8
0
 10
       13.500000
 20
       52.000000
 30
        0.000000
 40
        1.000000
  0
CIRCLE
  8
0
 10
        6.000000
 20
       55.000000
 30
        0.000000
 40
        1.000000
  0
CIRCLE
  8
0
 10
        3.000000
 20
       55.000000
 30
        0.000000
 40
        1.000000
  0
CIRCLE
  8
0
 10
        9.000000
 20
       55.000000
 30
        0.000000
 40
        1.000000
  0
CIRCLE
  8
0
 10
       -3.000000
 20
       55.000000
 30
        0.000000
 40
        1.000000
  0
CIRCLE
  8
0
 10
        0.000000
 20
       55.000000
 30
        0.000000
 40
        1.000000
  0
CIRCLE
  8
0
 10
       10.500000
 20
       52.000000
 30
        0.000000
 40
        1.000000
  0
CIRCLE
  8
0
 10
        6.000000
 20
       49.000000
 30
        0.000000
 40
        1.000000
  0
CIRCLE
  8
0
 10
        1.500000
 20
       52.000000
 30
        0.000000
 40
        1.000000
  0
CIRCLE
  8
0
 10
        4.500000
 20
       52.000000
 30
        0.000000
 40
        1.000000
  0
CIRCLE
  8
0
 10
        3.000000
 20
       49.000000
 30
        0.000000
 40
        1.000000
  0
CIRCLE
  8
0
 10
        7.500000
 20
       52.000000
 30
        0.000000
 40
        1.000000
  0
CIRCLE
  8
0
 10
        9.000000
 20
       49.000000
 30
        0.000000
 40
        1.000000
  0
CIRCLE
  8
0
 10
       -3.000000
 20
       49.000000
 30
        0.000000
 40
        1.000000
  0
CIRCLE
  8
0
 10
       -1.500000
 20
       52.000000
 30
        0.000000
 40
        1.000000
  0
CIRCLE
  8
0
 10
        0.000000
 20
       49.000000
 30
        0.000000
 40
        1.000000
  0
CIRCLE
  8
0
 10
       12.000000
 20
       55.000000
 30
        0.000000
 40
        1.000000
  0
CIRCLE
  8
0
 10
       12.000000
 20
       49.000000
 30
        0.000000
 40
        1.000000
  0
CIRCLE
  8
0
 10
       33.000000
 20
       55.000000
 30
        0.000000
 40
        1.000000
  0
CIRCLE
  8
0
 10
       27.000000
 20
       55.000000
 30
        0.000000
 40
        1.000000
  0
CIRCLE
  8
0
 10
       30.000000
 20
       55.000000
 30
        0.000000
 40
        1.000000
  0
CIRCLE
  8
0
 10
       21.000000
 20
       55.000000
 30
        0.000000
 40
        1.000000
  0
CIRCLE
  8
0
 10
       24.000000
 20
       55.000000
 30
        0.000000
 40
        1.000000
  0
CIRCLE
  8
0
 10
       18.000000
 20
       55.000000
 30
        0.000000
 40
        1.000000
  0
CIRCLE
  8
0
 10
       19.500000
 20
       52.000000
 30
        0.000000
 40
        1.000000
  0
CIRCLE
  8
0
 10
       18.000000
 20
       49.000000
 30
        0.000000
 40
        1.000000
  0
CIRCLE
  8
0
 10
       31.500000
 20
       52.000000
 30
        0.000000
 40
        1.000000
  0
CIRCLE
  8
0
 10
       33.000000
 20
       49.000000
 30
        0.000000
 40
        1.000000
  0
CIRCLE
  8
0
 10
       28.500000
 20
       52.000000
 30
        0.000000
 40
        1.000000
  0
CIRCLE
  8
0
 10
       27.000000
 20
       49.000000
 30
        0.000000
 40
        1.000000
  0
CIRCLE
  8
0
 10
       30.000000
 20
       49.000000
 30
        0.000000
 40
        1.000000
  0
CIRCLE
  8
0
 10
       22.500000
 20
       52.000000
 30
        0.000000
 40
        1.000000
  0
CIRCLE
  8
0
 10
       21.000000
 20
       49.000000
 30
        0.000000
 40
        1.000000
  0
CIRCLE
  8
0
 10
       25.500000
 20
       52.000000
 30
        0.000000
 40
        1.000000
  0
CIRCLE
  8
0
 10
       24.000000
 20
       49.000000
 30
        0.000000
 40
        1.000000
  0
TEXT
  8
4
 10
      168.967679
 20
       25.235791
 30
        0.000000
 40
        1.875000
  1
ＬＡＭＰ　２
 50
        0.000000
 41
        1.000000
 51
        0.000000
  7
BIGFONT
  0
LINE
  8
0
 10
      140.508937
 20
       28.500000
 30
        0.000000
 11
      140.508937
 21
        7.500000
 31
        0.000000
  0
LINE
  8
0
 10
      155.508937
 20
       28.500000
 30
        0.000000
 11
      155.508937
 21
        7.500000
 31
        0.000000
  0
LINE
  8
0
 10
       67.500000
 20
       28.000000
 30
        0.000000
 11
       67.500000
 21
        8.000000
 31
        0.000000
  0
LINE
  8
0
 10
       65.500000
 20
       29.469375
 30
        0.000000
 11
       65.500000
 21
        8.469375
 31
        0.000000
  0
LINE
  8
0
 10
      137.008902
 20
       58.500000
 30
        0.000000
 11
      137.008902
 21
        0.000000
 31
        0.000000
  0
LINE
  8
0
 10
      136.008902
 20
       58.500000
 30
        0.000000
 11
      136.008902
 21
        0.000000
 31
        0.000000
  0
LINE
  8
0
 10
       65.500000
 20
       60.000000
 30
        0.000000
 11
       65.500000
 21
        1.500000
 31
        0.000000
  0
LINE
  8
0
 10
      185.008902
 20
       58.500000
 30
        0.000000
 11
      185.008902
 21
        0.000000
 31
        0.000000
  0
LINE
  8
0
 10
      186.008902
 20
       58.500000
 30
        0.000000
 11
      186.008902
 21
        0.000000
 31
        0.000000
  0
LINE
  8
0
 10
      138.508902
 20
        0.000000
 30
        0.000000
 11
      183.508902
 21
        0.000000
 31
        0.000000
  0
LINE
  8
0
 10
       62.500000
 20
       20.000000
 30
        0.000000
 11
       58.500000
 21
       20.000000
 31
        0.000000
  0
CIRCLE
  8
0
 10
       60.500000
 20
       20.000000
 30
        0.000000
 40
        3.300000
  0
LINE
  8
0
 10
       60.500000
 20
       18.000000
 30
        0.000000
 11
       60.500000
 21
       22.000000
 31
        0.000000
  0
LINE
  8
0
 10
       69.726412
 20
       22.500000
 30
        0.000000
 11
       80.000000
 21
       22.500000
 31
        0.000000
  0
LINE
  8
0
 10
       70.750000
 20
       19.500000
 30
        0.000000
 11
       80.000000
 21
       19.500000
 31
        0.000000
  0
LINE
  8
0
 10
       70.815622
 20
       20.500000
 30
        0.000000
 11
       80.000000
 21
       20.500000
 31
        0.000000
  0
LINE
  8
0
 10
       70.750000
 20
       18.500000
 30
        0.000000
 11
       80.000000
 21
       18.500000
 31
        0.000000
  0
LINE
  8
0
 10
       71.246184
 20
       21.500000
 30
        0.000000
 11
       80.000000
 21
       21.500000
 31
        0.000000
  0
LINE
  8
0
 10
       70.750000
 20
       17.500000
 30
        0.000000
 11
       80.000000
 21
       17.500000
 31
        0.000000
  0
LINE
  8
0
 10
       70.750000
 20
       12.500000
 30
        0.000000
 11
       80.000000
 21
       12.500000
 31
        0.000000
  0
LINE
  8
0
 10
       70.750000
 20
       13.500000
 30
        0.000000
 11
       80.000000
 21
       13.500000
 31
        0.000000
  0
LINE
  8
0
 10
       70.750000
 20
       14.500000
 30
        0.000000
 11
       80.000000
 21
       14.500000
 31
        0.000000
  0
LINE
  8
0
 10
       70.750000
 20
       16.500000
 30
        0.000000
 11
       80.000000
 21
       16.500000
 31
        0.000000
  0
LINE
  8
0
 10
       70.750000
 20
       15.500000
 30
        0.000000
 11
       80.000000
 21
       15.500000
 31
        0.000000
  0
LINE
  8
0
 10
       69.500000
 20
       11.500000
 30
        0.000000
 11
       80.000000
 21
       11.500000
 31
        0.000000
  0
ARC
  8
0
 10
       67.000000
 20
        8.000000
 30
        0.000000
 40
        0.500000
 50
      270.000000
 51
      360.000000
  0
LINE
  8
0
 10
       70.500000
 20
       18.750000
 30
        0.000000
 11
       70.500000
 21
       19.250000
 31
        0.000000
  0
ARC
  8
0
 10
       70.750000
 20
       19.250000
 30
        0.000000
 40
        0.250000
 50
       90.000000
 51
      180.000005
  0
ARC
  8
0
 10
       70.750000
 20
       17.250000
 30
        0.000000
 40
        0.250000
 50
       90.000000
 51
      180.000005
  0
ARC
  8
0
 10
       70.750000
 20
       18.750000
 30
        0.000000
 40
        0.250000
 50
      180.000005
 51
      270.000000
  0
LINE
  8
0
 10
       68.201457
 20
       14.000000
 30
        0.000000
 11
       69.500000
 21
       14.000000
 31
        0.000000
  0
LINE
  8
0
 10
       70.500000
 20
       12.750000
 30
        0.000000
 11
       70.500000
 21
       13.250000
 31
        0.000000
  0
ARC
  8
0
 10
       70.750000
 20
       13.250000
 30
        0.000000
 40
        0.250000
 50
       90.000000
 51
      180.000005
  0
ARC
  8
0
 10
       70.750000
 20
       12.750000
 30
        0.000000
 40
        0.250000
 50
      180.000005
 51
      270.000000
  0
ARC
  8
0
 10
       70.750000
 20
       16.750000
 30
        0.000000
 40
        0.250000
 50
      180.000005
 51
      270.000000
  0
LINE
  8
0
 10
       70.500000
 20
       14.750000
 30
        0.000000
 11
       70.500000
 21
       15.250000
 31
        0.000000
  0
ARC
  8
0
 10
       70.750000
 20
       15.250000
 30
        0.000000
 40
        0.250000
 50
       90.000000
 51
      180.000005
  0
ARC
  8
0
 10
       70.750000
 20
       14.750000
 30
        0.000000
 40
        0.250000
 50
      180.000005
 51
      270.000000
  0
LINE
  8
0
 10
       68.588184
 20
       15.292920
 30
        0.000000
 11
       68.475068
 21
       14.000000
 31
        0.000000
  0
LINE
  8
0
 10
       69.500000
 20
       11.500000
 30
        0.000000
 11
       69.500000
 21
       17.753141
 31
        0.000000
  0
LINE
  8
0
 10
       70.500000
 20
       16.750000
 30
        0.000000
 11
       70.500000
 21
       17.250000
 31
        0.000000
  0
ARC
  8
0
 10
       70.753372
 20
       21.415521
 30
        0.000000
 40
        0.500000
 50
      330.168785
 51
      429.321883
  0
LINE
  8
0
 10
       67.000000
 20
        7.500000
 30
        0.000000
 11
       65.500000
 21
        7.500000
 31
        0.000000
  0
ARC
  8
0
 10
       98.001096
 20
        5.790882
 30
        0.000000
 40
       30.909676
 50
      150.168780
 51
      170.673705
  0
ARC
  8
0
 10
       81.000000
 20
       21.750000
 30
        0.000000
 40
        0.500000
 50
        0.000000
 51
       90.000000
  0
LINE
  8
0
 10
       80.000000
 20
       22.500000
 30
        0.000000
 11
       80.000000
 21
       21.500000
 31
        0.000000
  0
LINE
  8
0
 10
       80.000000
 20
       20.500000
 30
        0.000000
 11
       80.000000
 21
       19.500000
 31
        0.000000
  0
LINE
  8
0
 10
       81.000000
 20
       22.250000
 30
        0.000000
 11
       80.000000
 21
       22.250000
 31
        0.000000
  0
LINE
  8
0
 10
       80.000000
 20
       18.500000
 30
        0.000000
 11
       80.000000
 21
       17.500000
 31
        0.000000
  0
LINE
  8
0
 10
       80.000000
 20
       14.500000
 30
        0.000000
 11
       80.000000
 21
       13.500000
 31
        0.000000
  0
ARC
  8
0
 10
       81.000000
 20
       12.250000
 30
        0.000000
 40
        0.500000
 50
      270.000000
 51
      360.000000
  0
LINE
  8
0
 10
       81.000000
 20
       11.750000
 30
        0.000000
 11
       80.000000
 21
       11.750000
 31
        0.000000
  0
LINE
  8
0
 10
       80.000000
 20
       12.500000
 30
        0.000000
 11
       80.000000
 21
       11.500000
 31
        0.000000
  0
LINE
  8
0
 10
       80.000000
 20
       16.500000
 30
        0.000000
 11
       80.000000
 21
       15.500000
 31
        0.000000
  0
LINE
  8
0
 10
       81.500000
 20
       12.250000
 30
        0.000000
 11
       81.500000
 21
       21.750000
 31
        0.000000
  0
ARC
  8
0
 10
       73.054477
 20
       27.512259
 30
        0.000000
 40
        6.016540
 50
      202.601353
 51
      249.321888
  0
ARC
  8
0
 10
       52.821015
 20
       -4.500000
 30
        0.000000
 40
        0.500000
 50
      270.000000
 51
      339.902267
  0
LINE
  8
0
 10
       55.000000
 20
        0.000000
 30
        0.000000
 11
       53.290569
 21
       -4.671811
 31
        0.000000
  0
LINE
  8
0
 10
       50.000000
 20
       -5.000000
 30
        0.000000
 11
       47.178985
 21
       -5.000000
 31
        0.000000
  0
ARC
  8
0
 10
       47.178985
 20
       -4.500000
 30
        0.000000
 40
        0.500000
 50
      200.097738
 51
      270.000000
  0
LINE
  8
0
 10
       45.000000
 20
        0.000000
 30
        0.000000
 11
       46.709431
 21
       -4.671811
 31
        0.000000
  0
LINE
  8
0
 10
       50.000000
 20
       -5.000000
 30
        0.000000
 11
       52.821015
 21
       -5.000000
 31
        0.000000
  0
ARC
  8
0
 10
       64.000000
 20
        1.500000
 30
        0.000000
 40
        1.500000
 50
      270.000000
 51
      360.000000
  0
ARC
  8
0
 10
      137.753620
 20
       19.986368
 30
        0.000000
 40
        3.744889
 50
      117.768033
 51
      242.231967
  0
LINE
  8
0
 10
      142.808937
 20
       25.200000
 30
        0.000000
 11
      153.208937
 21
       25.200000
 31
        0.000000
  0
LINE
  8
0
 10
      142.508937
 20
       25.500000
 30
        0.000000
 11
      153.508937
 21
       25.500000
 31
        0.000000
  0
CIRCLE
  8
0
 10
      148.008937
 20
        9.533651
 30
        0.000000
 40
        0.542698
  0
CIRCLE
  8
0
 10
      148.008937
 20
        9.533651
 30
        0.000000
 40
        0.773800
  0
LINE
  8
0
 10
      142.808937
 20
       10.800000
 30
        0.000000
 11
      153.208937
 21
       10.800000
 31
        0.000000
  0
LINE
  8
0
 10
      142.508937
 20
       10.500000
 30
        0.000000
 11
      153.508937
 21
       10.500000
 31
        0.000000
  0
LINE
  8
0
 10
      142.808937
 20
       21.700000
 30
        0.000000
 11
      153.208937
 21
       21.700000
 31
        0.000000
  0
TEXT
  8
4
 10
      145.946555
 20
        2.181197
 30
        0.000000
 40
        1.125000
  1
ＰＯＷＥＲ　ＳＵＰＰＬＹ
 50
        0.000000
 41
        1.000000
 51
        0.000000
  7
BIGFONT
  0
LINE
  8
0
 10
      140.508937
 20
        7.500000
 30
        0.000000
 11
      155.508937
 21
        7.500000
 31
        0.000000
  0
TEXT
  8
4
 10
      141.805333
 20
        4.381742
 30
        0.000000
 40
        1.125000
  1
ＰＵＬＳＥ　ＣＯＮＴＲＯＬ
 50
        0.000000
 41
        1.000000
 51
        0.000000
  7
BIGFONT
  0
LINE
  8
0
 10
      142.808937
 20
       25.200000
 30
        0.000000
 11
      142.808937
 21
       10.800000
 31
        0.000000
  0
LINE
  8
0
 10
      142.508937
 20
       25.500000
 30
        0.000000
 11
      142.508937
 21
       10.500000
 31
        0.000000
  0
LINE
  8
0
 10
      153.208937
 20
       25.200000
 30
        0.000000
 11
      153.208937
 21
       10.800000
 31
        0.000000
  0
LINE
  8
0
 10
      153.508937
 20
       25.500000
 30
        0.000000
 11
      153.508937
 21
       10.500000
 31
        0.000000
  0
LINE
  8
0
 10
      138.508902
 20
        0.000000
 30
        0.000000
 11
      140.218333
 21
       -4.671811
 31
        0.000000
  0
ARC
  8
0
 10
      138.508902
 20
        1.500000
 30
        0.000000
 40
        1.500000
 50
      180.000005
 51
      270.000000
  0
LINE
  8
0
 10
      136.008902
 20
        0.000000
 30
        0.000000
 11
      137.008902
 21
        0.000000
 31
        0.000000
  0
LINE
  8
0
 10
      148.508902
 20
        0.000000
 30
        0.000000
 11
      146.799471
 21
       -4.671811
 31
        0.000000
  0
LINE
  8
0
 10
      143.508902
 20
       -5.000000
 30
        0.000000
 11
      146.329917
 21
       -5.000000
 31
        0.000000
  0
ARC
  8
0
 10
      146.329917
 20
       -4.500000
 30
        0.000000
 40
        0.500000
 50
      270.000000
 51
      339.902267
  0
ARC
  8
0
 10
      140.687886
 20
       -4.500000
 30
        0.000000
 40
        0.500000
 50
      200.097738
 51
      270.000000
  0
LINE
  8
0
 10
      143.508902
 20
       -5.000000
 30
        0.000000
 11
      140.687886
 21
       -5.000000
 31
        0.000000
  0
CIRCLE
  8
0
 10
      173.508902
 20
       17.000000
 30
        0.000000
 40
        5.250000
  0
CIRCLE
  8
0
 10
      173.508902
 20
       17.000000
 30
        0.000000
 40
        5.500000
  0
LINE
  8
0
 10
      169.157995
 20
       13.635537
 30
        0.000000
 11
      170.262572
 21
       14.663049
 31
        0.000000
  0
CIRCLE
  8
0
 10
      173.508902
 20
       17.000000
 30
        0.000000
 40
        4.000000
  0
LINE
  8
0
 10
      169.839098
 20
       12.903350
 30
        0.000000
 11
      170.943675
 21
       13.930861
 31
        0.000000
  0
ARC
  8
0
 10
      184.264184
 20
       19.986368
 30
        0.000000
 40
        3.744889
 50
      297.768038
 51
      422.231962
  0
ARC
  8
0
 10
      183.508902
 20
        1.500000
 30
        0.000000
 40
        1.500000
 50
      270.000000
 51
      360.000000
  0
LINE
  8
0
 10
      183.508902
 20
        0.000000
 30
        0.000000
 11
      181.799471
 21
       -4.671811
 31
        0.000000
  0
LINE
  8
0
 10
      173.508902
 20
        0.000000
 30
        0.000000
 11
      175.218333
 21
       -4.671811
 31
        0.000000
  0
ARC
  8
0
 10
      181.329917
 20
       -4.500000
 30
        0.000000
 40
        0.500000
 50
      270.000000
 51
      339.902267
  0
LINE
  8
0
 10
      178.508902
 20
       -5.000000
 30
        0.000000
 11
      181.329917
 21
       -5.000000
 31
        0.000000
  0
ARC
  8
0
 10
      175.687886
 20
       -4.500000
 30
        0.000000
 40
        0.500000
 50
      200.097738
 51
      270.000000
  0
LINE
  8
0
 10
      178.508902
 20
       -5.000000
 30
        0.000000
 11
      175.687886
 21
       -5.000000
 31
        0.000000
  0
LINE
  8
0
 10
      186.008902
 20
        0.000000
 30
        0.000000
 11
      185.008902
 21
        0.000000
 31
        0.000000
  0
LINE
  8
0
 10
      185.008902
 20
       58.500000
 30
        0.000000
 11
      137.008902
 21
       58.500000
 31
        0.000000
  0
LINE
  8
0
 10
      137.508902
 20
       59.000000
 30
        0.000000
 11
      184.508902
 21
       59.000000
 31
        0.000000
  0
LINE
  8
0
 10
      137.508902
 20
       60.000000
 30
        0.000000
 11
      184.508902
 21
       60.000000
 31
        0.000000
  0
LINE
  8
0
 10
       69.500000
 20
       36.500000
 30
        0.000000
 11
       69.500000
 21
       47.500000
 31
        0.000000
  0
ARC
  8
0
 10
       81.000000
 20
       46.750000
 30
        0.000000
 40
        0.500000
 50
        0.000000
 51
       90.000000
  0
LINE
  8
0
 10
       80.000000
 20
       47.500000
 30
        0.000000
 11
       80.000000
 21
       46.500000
 31
        0.000000
  0
LINE
  8
0
 10
       70.750000
 20
       44.500000
 30
        0.000000
 11
       80.000000
 21
       44.500000
 31
        0.000000
  0
LINE
  8
0
 10
       70.750000
 20
       45.500000
 30
        0.000000
 11
       80.000000
 21
       45.500000
 31
        0.000000
  0
LINE
  8
0
 10
       70.750000
 20
       43.500000
 30
        0.000000
 11
       80.000000
 21
       43.500000
 31
        0.000000
  0
LINE
  8
0
 10
       70.750000
 20
       46.500000
 30
        0.000000
 11
       80.000000
 21
       46.500000
 31
        0.000000
  0
LINE
  8
0
 10
       70.750000
 20
       37.500000
 30
        0.000000
 11
       80.000000
 21
       37.500000
 31
        0.000000
  0
LINE
  8
0
 10
       70.750000
 20
       38.500000
 30
        0.000000
 11
       80.000000
 21
       38.500000
 31
        0.000000
  0
LINE
  8
0
 10
       70.750000
 20
       39.500000
 30
        0.000000
 11
       80.000000
 21
       39.500000
 31
        0.000000
  0
LINE
  8
0
 10
       70.750000
 20
       41.500000
 30
        0.000000
 11
       80.000000
 21
       41.500000
 31
        0.000000
  0
LINE
  8
0
 10
       70.750000
 20
       40.500000
 30
        0.000000
 11
       80.000000
 21
       40.500000
 31
        0.000000
  0
LINE
  8
0
 10
       70.750000
 20
       42.500000
 30
        0.000000
 11
       80.000000
 21
       42.500000
 31
        0.000000
  0
LINE
  8
0
 10
       69.500000
 20
       36.500000
 30
        0.000000
 11
       80.000000
 21
       36.500000
 31
        0.000000
  0
LINE
  8
0
 10
       68.000000
 20
       45.000000
 30
        0.000000
 11
       69.500000
 21
       45.000000
 31
        0.000000
  0
LINE
  8
0
 10
       68.000000
 20
       39.000000
 30
        0.000000
 11
       69.500000
 21
       39.000000
 31
        0.000000
  0
LINE
  8
0
 10
       69.000000
 20
       45.000000
 30
        0.000000
 11
       68.475068
 21
       39.000000
 31
        0.000000
  0
LINE
  8
0
 10
       68.000000
 20
       38.102886
 30
        0.000000
 11
       68.000000
 21
       45.897114
 31
        0.000000
  0
LINE
  8
0
 10
       66.000000
 20
       37.000000
 30
        0.000000
 11
       65.500000
 21
       37.000000
 31
        0.000000
  0
LINE
  8
0
 10
       68.000000
 20
       38.102886
 30
        0.000000
 11
       66.000000
 21
       38.102886
 31
        0.000000
  0
LINE
  8
0
 10
       66.000000
 20
       47.000000
 30
        0.000000
 11
       65.500000
 21
       47.000000
 31
        0.000000
  0
LINE
  8
0
 10
       68.000000
 20
       45.897114
 30
        0.000000
 11
       66.000000
 21
       45.897114
 31
        0.000000
  0
LINE
  8
0
 10
       70.500000
 20
       37.750000
 30
        0.000000
 11
       70.500000
 21
       38.250000
 31
        0.000000
  0
ARC
  8
0
 10
       70.750000
 20
       38.250000
 30
        0.000000
 40
        0.250000
 50
       90.000000
 51
      180.000005
  0
ARC
  8
0
 10
       70.750000
 20
       37.750000
 30
        0.000000
 40
        0.250000
 50
      180.000005
 51
      270.000000
  0
LINE
  8
0
 10
       70.500000
 20
       43.750000
 30
        0.000000
 11
       70.500000
 21
       44.250000
 31
        0.000000
  0
LINE
  8
0
 10
       70.500000
 20
       45.750000
 30
        0.000000
 11
       70.500000
 21
       46.250000
 31
        0.000000
  0
ARC
  8
0
 10
       70.750000
 20
       46.250000
 30
        0.000000
 40
        0.250000
 50
       90.000000
 51
      180.000005
  0
ARC
  8
0
 10
       70.750000
 20
       45.750000
 30
        0.000000
 40
        0.250000
 50
      180.000005
 51
      270.000000
  0
ARC
  8
0
 10
       70.750000
 20
       44.250000
 30
        0.000000
 40
        0.250000
 50
       90.000000
 51
      180.000005
  0
ARC
  8
0
 10
       70.750000
 20
       41.750000
 30
        0.000000
 40
        0.250000
 50
      180.000005
 51
      270.000000
  0
LINE
  8
0
 10
       70.500000
 20
       39.750000
 30
        0.000000
 11
       70.500000
 21
       40.250000
 31
        0.000000
  0
ARC
  8
0
 10
       70.750000
 20
       40.250000
 30
        0.000000
 40
        0.250000
 50
       90.000000
 51
      180.000005
  0
ARC
  8
0
 10
       70.750000
 20
       39.750000
 30
        0.000000
 40
        0.250000
 50
      180.000005
 51
      270.000000
  0
LINE
  8
0
 10
       70.500000
 20
       41.750000
 30
        0.000000
 11
       70.500000
 21
       42.250000
 31
        0.000000
  0
ARC
  8
0
 10
       70.750000
 20
       42.250000
 30
        0.000000
 40
        0.250000
 50
       90.000000
 51
      180.000005
  0
ARC
  8
0
 10
       70.750000
 20
       43.750000
 30
        0.000000
 40
        0.250000
 50
      180.000005
 51
      270.000000
  0
LINE
  8
0
 10
       80.000000
 20
       39.500000
 30
        0.000000
 11
       80.000000
 21
       38.500000
 31
        0.000000
  0
LINE
  8
0
 10
       81.500000
 20
       37.250000
 30
        0.000000
 11
       81.500000
 21
       46.750000
 31
        0.000000
  0
ARC
  8
0
 10
       81.000000
 20
       37.250000
 30
        0.000000
 40
        0.500000
 50
      270.000000
 51
      360.000000
  0
LINE
  8
0
 10
       81.000000
 20
       36.750000
 30
        0.000000
 11
       80.000000
 21
       36.750000
 31
        0.000000
  0
LINE
  8
0
 10
       80.000000
 20
       37.500000
 30
        0.000000
 11
       80.000000
 21
       36.500000
 31
        0.000000
  0
LINE
  8
0
 10
       80.000000
 20
       45.500000
 30
        0.000000
 11
       80.000000
 21
       44.500000
 31
        0.000000
  0
LINE
  8
0
 10
       81.000000
 20
       47.250000
 30
        0.000000
 11
       80.000000
 21
       47.250000
 31
        0.000000
  0
LINE
  8
0
 10
       80.000000
 20
       41.500000
 30
        0.000000
 11
       80.000000
 21
       40.500000
 31
        0.000000
  0
LINE
  8
0
 10
       80.000000
 20
       43.500000
 30
        0.000000
 11
       80.000000
 21
       42.500000
 31
        0.000000
  0
LINE
  8
0
 10
       69.500000
 20
       47.500000
 30
        0.000000
 11
       80.000000
 21
       47.500000
 31
        0.000000
  0
ARC
  8
0
 10
       67.000000
 20
       28.000000
 30
        0.000000
 40
        0.500000
 50
        0.000000
 51
       90.000000
  0
LINE
  8
0
 10
       67.000000
 20
       28.500000
 30
        0.000000
 11
       65.500000
 21
       28.500000
 31
        0.000000
  0
LINE
  8
0
 10
       66.314249
 20
       45.500000
 30
        0.000000
 11
       65.500000
 21
       45.500000
 31
        0.000000
  0
LINE
  8
0
 10
       67.314249
 20
       41.000000
 30
        0.000000
 11
       66.314249
 21
       38.500000
 31
        0.000000
  0
LINE
  8
0
 10
       66.314249
 20
       38.500000
 30
        0.000000
 11
       65.500000
 21
       38.500000
 31
        0.000000
  0
ARC
  8
0
 10
       67.000000
 20
       42.000000
 30
        0.000000
 40
        1.000000
 50
      288.315488
 51
      360.000000
  0
ARC
  8
0
 10
       67.000000
 20
       42.000000
 30
        0.000000
 40
        1.000000
 50
        0.000000
 51
       71.684512
  0
LINE
  8
0
 10
       67.314249
 20
       43.000000
 30
        0.000000
 11
       67.314249
 21
       42.000000
 31
        0.000000
  0
LINE
  8
0
 10
       67.314249
 20
       41.000000
 30
        0.000000
 11
       67.314249
 21
       42.000000
 31
        0.000000
  0
LINE
  8
0
 10
       67.314249
 20
       43.000000
 30
        0.000000
 11
       66.314249
 21
       45.500000
 31
        0.000000
  0
LINE
  8
0
 10
       66.314249
 20
       45.500000
 30
        0.000000
 11
       66.314249
 21
       38.500000
 31
        0.000000
  0
LINE
  8
0
 10
       66.000000
 20
       45.500000
 30
        0.000000
 11
       66.000000
 21
       47.000000
 31
        0.000000
  0
LINE
  8
0
 10
       66.000000
 20
       37.000000
 30
        0.000000
 11
       66.000000
 21
       38.500000
 31
        0.000000
  0
ARC
  8
0
 10
      137.508902
 20
       58.500000
 30
        0.000000
 40
        0.500000
 50
       90.000000
 51
      180.000005
  0
CIRCLE
  8
0
 10
      148.008902
 20
       42.000000
 30
        0.000000
 40
        1.000000
  0
TEXT
  8
4
 10
      144.072678
 20
       47.818363
 30
        0.000000
 40
        1.875000
  1
ＰＯＷＥＲ
 50
        0.000000
 41
        1.000000
 51
        0.000000
  7
BIGFONT
  0
CIRCLE
  8
0
 10
      148.008902
 20
       42.000000
 30
        0.000000
 40
        3.500000
  0
LINE
  8
0
 10
      149.024901
 20
       26.211372
 30
        0.000000
 11
      146.992973
 21
       26.211372
 31
        0.000000
  0
LINE
  8
0
 10
      146.992973
 20
       26.719039
 30
        0.000000
 11
      149.024901
 21
       26.719039
 31
        0.000000
  0
LINE
  8
0
 10
      146.992973
 20
       26.211372
 30
        0.000000
 11
      146.992973
 21
       26.719039
 31
        0.000000
  0
LINE
  8
0
 10
      149.024901
 20
       26.719039
 30
        0.000000
 11
      149.024901
 21
       26.211372
 31
        0.000000
  0
LINE
  8
0
 10
      140.508937
 20
       28.500000
 30
        0.000000
 11
      155.508937
 21
       28.500000
 31
        0.000000
  0
ARC
  8
0
 10
      137.508902
 20
       58.500000
 30
        0.000000
 40
        1.500000
 50
       90.000000
 51
      180.000005
  0
LINE
  8
0
 10
       67.314249
 20
      118.108810
 30
        0.000000
 11
       66.314249
 21
      120.608810
 31
        0.000000
  0
LINE
  8
0
 10
       66.314249
 20
      120.608810
 30
        0.000000
 11
       66.314249
 21
      113.608810
 31
        0.000000
  0
LINE
  8
0
 10
       67.314249
 20
      116.108810
 30
        0.000000
 11
       66.314249
 21
      113.608810
 31
        0.000000
  0
LINE
  8
0
 10
       66.314249
 20
      113.608810
 30
        0.000000
 11
       65.500000
 21
      113.608810
 31
        0.000000
  0
ARC
  8
0
 10
       67.000000
 20
      117.108810
 30
        0.000000
 40
        1.000000
 50
      288.315488
 51
      360.000000
  0
ARC
  8
0
 10
       67.000000
 20
      117.108810
 30
        0.000000
 40
        1.000000
 50
        0.000000
 51
       71.684512
  0
LINE
  8
0
 10
       67.314249
 20
      118.108810
 30
        0.000000
 11
       67.314249
 21
      117.108810
 31
        0.000000
  0
LINE
  8
0
 10
       67.314249
 20
      116.108810
 30
        0.000000
 11
       67.314249
 21
      117.108810
 31
        0.000000
  0
LINE
  8
0
 10
       66.314249
 20
      120.608810
 30
        0.000000
 11
       65.500000
 21
      120.608810
 31
        0.000000
  0
LINE
  8
0
 10
       69.500000
 20
      144.303896
 30
        0.000000
 11
       80.000000
 21
      144.303896
 31
        0.000000
  0
LINE
  8
0
 10
       70.750000
 20
      143.303896
 30
        0.000000
 11
       80.000000
 21
      143.303896
 31
        0.000000
  0
LINE
  8
0
 10
       70.750000
 20
      142.303896
 30
        0.000000
 11
       80.000000
 21
      142.303896
 31
        0.000000
  0
ARC
  8
0
 10
       70.750000
 20
      142.553896
 30
        0.000000
 40
        0.250000
 50
      180.000005
 51
      270.000000
  0
ARC
  8
0
 10
       70.750000
 20
      143.053896
 30
        0.000000
 40
        0.250000
 50
       90.000000
 51
      180.000005
  0
LINE
  8
0
 10
       70.500000
 20
      142.553896
 30
        0.000000
 11
       70.500000
 21
      143.053896
 31
        0.000000
  0
LINE
  8
0
 10
       68.000000
 20
      142.701010
 30
        0.000000
 11
       66.000000
 21
      142.701010
 31
        0.000000
  0
LINE
  8
0
 10
       66.000000
 20
      143.803896
 30
        0.000000
 11
       65.500000
 21
      143.803896
 31
        0.000000
  0
LINE
  8
0
 10
       81.000000
 20
      144.053896
 30
        0.000000
 11
       80.000000
 21
      144.053896
 31
        0.000000
  0
LINE
  8
0
 10
       80.000000
 20
      144.303896
 30
        0.000000
 11
       80.000000
 21
      143.303896
 31
        0.000000
  0
ARC
  8
0
 10
       81.000000
 20
      143.553896
 30
        0.000000
 40
        0.500000
 50
        0.000000
 51
       90.000000
  0
LINE
  8
0
 10
       70.750000
 20
      139.303896
 30
        0.000000
 11
       80.000000
 21
      139.303896
 31
        0.000000
  0
LINE
  8
0
 10
       70.750000
 20
      140.303896
 30
        0.000000
 11
       80.000000
 21
      140.303896
 31
        0.000000
  0
LINE
  8
0
 10
       70.750000
 20
      141.303896
 30
        0.000000
 11
       80.000000
 21
      141.303896
 31
        0.000000
  0
ARC
  8
0
 10
       70.750000
 20
      140.553896
 30
        0.000000
 40
        0.250000
 50
      180.000005
 51
      270.000000
  0
ARC
  8
0
 10
       70.750000
 20
      139.053896
 30
        0.000000
 40
        0.250000
 50
       90.000000
 51
      180.000005
  0
ARC
  8
0
 10
       70.750000
 20
      141.053896
 30
        0.000000
 40
        0.250000
 50
       90.000000
 51
      180.000005
  0
LINE
  8
0
 10
       70.500000
 20
      140.553896
 30
        0.000000
 11
       70.500000
 21
      141.053896
 31
        0.000000
  0
LINE
  8
0
 10
       68.000000
 20
      141.803896
 30
        0.000000
 11
       69.500000
 21
      141.803896
 31
        0.000000
  0
LINE
  8
0
 10
       80.000000
 20
      140.303896
 30
        0.000000
 11
       80.000000
 21
      139.303896
 31
        0.000000
  0
LINE
  8
0
 10
       80.000000
 20
      142.303896
 30
        0.000000
 11
       80.000000
 21
      141.303896
 31
        0.000000
  0
LINE
  8
0
 10
       69.500000
 20
      133.303896
 30
        0.000000
 11
       80.000000
 21
      133.303896
 31
        0.000000
  0
LINE
  8
0
 10
       70.750000
 20
      137.303896
 30
        0.000000
 11
       80.000000
 21
      137.303896
 31
        0.000000
  0
LINE
  8
0
 10
       70.750000
 20
      138.303896
 30
        0.000000
 11
       80.000000
 21
      138.303896
 31
        0.000000
  0
LINE
  8
0
 10
       70.750000
 20
      136.303896
 30
        0.000000
 11
       80.000000
 21
      136.303896
 31
        0.000000
  0
LINE
  8
0
 10
       70.750000
 20
      135.303896
 30
        0.000000
 11
       80.000000
 21
      135.303896
 31
        0.000000
  0
LINE
  8
0
 10
       70.750000
 20
      134.303896
 30
        0.000000
 11
       80.000000
 21
      134.303896
 31
        0.000000
  0
ARC
  8
0
 10
       67.000000
 20
      123.603896
 30
        0.000000
 40
        0.500000
 50
        0.000000
 51
       90.000000
  0
LINE
  8
0
 10
       67.000000
 20
      124.103896
 30
        0.000000
 11
       65.500000
 21
      124.103896
 31
        0.000000
  0
ARC
  8
0
 10
       70.750000
 20
      136.553896
 30
        0.000000
 40
        0.250000
 50
      180.000005
 51
      270.000000
  0
ARC
  8
0
 10
       70.750000
 20
      137.053896
 30
        0.000000
 40
        0.250000
 50
       90.000000
 51
      180.000005
  0
LINE
  8
0
 10
       70.500000
 20
      136.553896
 30
        0.000000
 11
       70.500000
 21
      137.053896
 31
        0.000000
  0
ARC
  8
0
 10
       70.750000
 20
      138.553896
 30
        0.000000
 40
        0.250000
 50
      180.000005
 51
      270.000000
  0
ARC
  8
0
 10
       70.750000
 20
      134.553896
 30
        0.000000
 40
        0.250000
 50
      180.000005
 51
      270.000000
  0
ARC
  8
0
 10
       70.750000
 20
      135.053896
 30
        0.000000
 40
        0.250000
 50
       90.000000
 51
      180.000005
  0
LINE
  8
0
 10
       70.500000
 20
      134.553896
 30
        0.000000
 11
       70.500000
 21
      135.053896
 31
        0.000000
  0
LINE
  8
0
 10
       68.000000
 20
      134.906781
 30
        0.000000
 11
       66.000000
 21
      134.906781
 31
        0.000000
  0
LINE
  8
0
 10
       66.000000
 20
      133.803896
 30
        0.000000
 11
       65.500000
 21
      133.803896
 31
        0.000000
  0
LINE
  8
0
 10
       68.000000
 20
      135.803896
 30
        0.000000
 11
       69.500000
 21
      135.803896
 31
        0.000000
  0
LINE
  8
0
 10
       80.000000
 20
      138.303896
 30
        0.000000
 11
       80.000000
 21
      137.303896
 31
        0.000000
  0
LINE
  8
0
 10
       80.000000
 20
      134.303896
 30
        0.000000
 11
       80.000000
 21
      133.303896
 31
        0.000000
  0
LINE
  8
0
 10
       81.000000
 20
      133.553896
 30
        0.000000
 11
       80.000000
 21
      133.553896
 31
        0.000000
  0
ARC
  8
0
 10
       81.000000
 20
      134.053896
 30
        0.000000
 40
        0.500000
 50
      270.000000
 51
      360.000000
  0
LINE
  8
0
 10
       80.000000
 20
      136.303896
 30
        0.000000
 11
       80.000000
 21
      135.303896
 31
        0.000000
  0
LINE
  8
0
 10
       70.500000
 20
      138.553896
 30
        0.000000
 11
       70.500000
 21
      139.053896
 31
        0.000000
  0
LINE
  8
0
 10
       69.000000
 20
      141.803896
 30
        0.000000
 11
       68.475068
 21
      135.803896
 31
        0.000000
  0
LINE
  8
0
 10
       66.000000
 20
      133.803896
 30
        0.000000
 11
       66.000000
 21
      143.803896
 31
        0.000000
  0
LINE
  8
0
 10
       68.000000
 20
      134.906781
 30
        0.000000
 11
       68.000000
 21
      142.701010
 31
        0.000000
  0
LINE
  8
0
 10
       69.500000
 20
      133.303896
 30
        0.000000
 11
       69.500000
 21
      144.303896
 31
        0.000000
  0
LINE
  8
0
 10
       81.500000
 20
      134.053896
 30
        0.000000
 11
       81.500000
 21
      143.553896
 31
        0.000000
  0
ARC
  8
0
 10
       60.500000
 20
      104.848614
 30
        0.000000
 40
        3.744889
 50
      207.768041
 51
      332.231964
  0
LINE
  8
0
 10
       71.253372
 20
      111.903896
 30
        0.000000
 11
       71.253372
 21
      121.303896
 31
        0.000000
  0
ARC
  8
0
 10
       70.753372
 20
      111.903896
 30
        0.000000
 40
        0.500000
 50
      270.000000
 51
      360.000000
  0
ARC
  8
0
 10
       67.000000
 20
      109.603896
 30
        0.000000
 40
        0.500000
 50
      270.000000
 51
      360.000000
  0
LINE
  8
0
 10
       70.753372
 20
      111.403896
 30
        0.000000
 11
       67.500000
 21
      111.403896
 31
        0.000000
  0
LINE
  8
0
 10
       67.000000
 20
      109.103896
 30
        0.000000
 11
       65.500000
 21
      109.103896
 31
        0.000000
  0
ARC
  8
0
 10
       70.753372
 20
      121.303896
 30
        0.000000
 40
        0.500000
 50
        0.000000
 51
       90.000000
  0
LINE
  8
0
 10
       70.753372
 20
      121.803896
 30
        0.000000
 11
       67.500000
 21
      121.803896
 31
        0.000000
  0
LINE
  8
0
 10
       67.500000
 20
      109.603896
 30
        0.000000
 11
       67.500000
 21
      116.242784
 31
        0.000000
  0
LINE
  8
0
 10
       67.500000
 20
      117.974835
 30
        0.000000
 11
       67.500000
 21
      123.603896
 31
        0.000000
  0
TEXT
  8
4
 10
      168.967679
 20
       50.235791
 30
        0.000000
 40
        1.875000
  1
ＬＡＭＰ　１
 50
        0.000000
 41
        1.000000
 51
        0.000000
  7
BIGFONT
  0
CIRCLE
  8
0
 10
      173.508902
 20
       42.000000
 30
        0.000000
 40
        5.500000
  0
LINE
  8
0
 10
      169.157995
 20
       38.635537
 30
        0.000000
 11
      170.262572
 21
       39.663049
 31
        0.000000
  0
CIRCLE
  8
0
 10
      173.508902
 20
       42.000000
 30
        0.000000
 40
        5.250000
  0
LINE
  8
0
 10
      169.839098
 20
       37.903350
 30
        0.000000
 11
      170.943675
 21
       38.930861
 31
        0.000000
  0
CIRCLE
  8
0
 10
      173.508902
 20
       42.000000
 30
        0.000000
 40
        4.000000
  0
ARC
  8
0
 10
      184.508902
 20
       58.500000
 30
        0.000000
 40
        0.500000
 50
        0.000000
 51
       90.000000
  0
ARC
  8
0
 10
      184.508902
 20
       58.500000
 30
        0.000000
 40
        1.500000
 50
        0.000000
 51
       90.000000
  0
LINE
  8
0
 10
      -65.500000
 20
      153.103896
 30
        0.000000
 11
       65.500000
 21
      153.103896
 31
        0.000000
  0
ARC
  8
0
 10
      -60.500000
 20
      151.359178
 30
        0.000000
 40
        3.744889
 50
       27.768036
 51
      152.231959
  0
ARC
  8
0
 10
       60.500000
 20
      151.359178
 30
        0.000000
 40
        3.744889
 50
       27.768036
 51
      152.231959
  0
INSERT
  8
10
 62
  5
  2
BLK0002
 10
        0.000000
 20
        0.000000
  0
INSERT
  8
10
 62
  5
  2
BLK0003
 10
        0.000000
 20
        0.000000
  0
INSERT
  8
10
 62
  5
  2
BLK0004
 10
        0.000000
 20
        0.000000
  0
INSERT
  8
10
 62
  5
  2
BLK0005
 10
        0.000000
 20
        0.000000
  0
TEXT
  8
10
 10
     -196.091817
 20
      163.980000
 30
        0.000000
 40
        5.000000
  1
ＩＶ－ＬＰ１２Ｐ
 50
        0.000000
 41
        1.000000
 51
        0.000000
  7
BIGFONT
  0
INSERT
  8
10
 62
  5
  2
BLK0006
 10
        0.000000
 20
        0.000000
  0
INSERT
  8
10
 62
  5
  2
BLK0007
 10
        0.000000
 20
        0.000000
  0
INSERT
  8
10
 62
  5
  2
BLK0008
 10
        0.000000
 20
        0.000000
  0
INSERT
  8
10
 62
  5
  2
BLK0009
 10
        0.000000
 20
        0.000000
  0
INSERT
  8
10
 62
  5
  2
BLK0010
 10
        0.000000
 20
        0.000000
  0
INSERT
  8
10
 62
  5
  2
BLK0011
 10
        0.000000
 20
        0.000000
  0
INSERT
  8
10
 62
  5
  2
BLK0012
 10
        0.000000
 20
        0.000000
  0
INSERT
  8
10
 62
  5
  2
BLK0013
 10
        0.000000
 20
        0.000000
  0
TEXT
  8
10
 10
      -60.625743
 20
      -35.283426
 30
        0.000000
 40
        6.000000
  1
４－Ｒｕｂｂｅｒ　ｌｅｇ（Ｍ３ｓｃｒｅｗ）
 50
        0.000000
 41
        1.000000
 51
        0.000000
  7
BIGFONT
  0
ENDSEC
  0
EOF
