  0
SECTION
  2
HEADER
  9
$ACADVER
  1
AC1006
  9
$INSBASE
 10
0.0
 20
0.0
 30
0.0
  9
$EXTMIN
 10
     -178.533142
 20
      -47.249516
  9
$EXTMAX
 10
      206.838242
 20
      176.260498
  9
$LIMMIN
 10
     -178.533142
 20
      -47.249516
  9
$LIMMAX
 10
      206.838242
 20
      176.260498
  9
$VIEWCTR
 10
       14.152550
 20
       14.152550
  9
$ORTHOMODE
 70
     0
  9
$ANGBASE
 50
0.0
  9
$ANGDIR
 70
     0
  9
$SPLINETYPE
 70
     6
  9
$SPLINESEGS
 70
     8
9
$DIMASZ
 40
        4.000000
9
$DIMEXE
 40
        1.000000
9
$DIMEXO
 40
        2.500000
9
$DIMTXT
 40
        6.000000
9
$DIMGAP
 40
        1.000000
9
$DIMTAD
 70
1
9
$DIMTIH
 70
0
9
$DIMTOH
 70
0
  0
ENDSEC
  0
SECTION
  2
TABLES
  0
TABLE
  2
LTYPE
 70
     5
  0
LTYPE
  2
CONTINUOUS
 70
    64
  3
SOLID LINE
 72
    65
 73
     0
 40
0.0
  0
LTYPE
  2
DASHED
 70
    64
  3
-- -- -- -- -- --
 72
    65
 73
     2
 40
  0.75  
 49
  0.50  
 49
 -0.25  
  0
LTYPE
  2
DOT
 70
    64
  3
....................
 72
    65
 73
     2
 40
  0.25  
 49
  0.02  
 49
 -0.23  
  0
LTYPE
  2
CENTER
 70
    64
  3
-- . -- . -- . -- .
 72
    65
 73
    4
 40
  2.00  
 49
  1.25  
 49
 -0.25  
 49
  0.25  
 49
 -0.25  
  0
LTYPE
  2
PHANTOM
 70
    64
  3
-- .. -- .. -- ..
 72
    65
 73
    6
 40
  2.50  
 49
  1.25  
 49
 -0.25  
 49
  0.25  
 49
 -0.25  
 49
  0.25  
 49
 -0.25  
  0
ENDTAB
  0
TABLE
  2
LAYER
 70
     4
  0
LAYER
  2
0
 70
    64
 62
     3
  6
CONTINUOUS
  0
LAYER
  2
5
 70
    64
 62
     2
  6
CONTINUOUS
  0
LAYER
  2
7
 70
    64
 62
     3
  6
CONTINUOUS
  0
LAYER
  2
10
 70
    64
 62
     2
  6
CONTINUOUS
  0
ENDTAB
  0
TABLE
  2
STYLE
 70
     2
  0
STYLE
  2
STANDARD
 70
    64
 40
0.0
 41
1.0
 50
0.0
 71
     0
 42
5.0
  3
ROMANS
  4
BIGFONT
  0
STYLE
  2
BIGFONT
 70
    64
 40
0.0
 41
1.0
 50
0.0
 71
     0
 42
5.0
  3
ROMANS
  4
BIGFONT
  0
ENDTAB
  0
TABLE
  2
VIEW
 70
     0
  0
ENDTAB
  0
TABLE
  2
UCS
 70
     0
  0
ENDTAB
  0
TABLE
  2
DWGMGR
 70
     0
  0
ENDTAB
  0
ENDSEC
  0
SECTION
  2
BLOCKS
  0
BLOCK
  8
0
  2
BLK0001
 70
    64
 10
        0.000000
 20
        0.000000
  0
LINE
  8
10
 10
      129.909130
 20
       65.500000
 30
        0.000000
 11
      129.909130
 21
       79.925593
 31
        0.000000
  0
LINE
  8
10
 10
      184.909130
 20
       65.500000
 30
        0.000000
 11
      184.909130
 21
       79.925593
 31
        0.000000
  0
LINE
  8
10
 10
      133.909130
 20
       76.925593
 30
        0.000000
 11
      180.909130
 21
       76.925593
 31
        0.000000
  0
LINE
  8
10
 10
      133.909130
 20
       76.925594
 30
        0.000000
 11
      129.909130
 21
       76.925593
 31
        0.000000
  0
LINE
  8
10
 10
      129.909130
 20
       76.925593
 30
        0.000000
 11
      133.909130
 21
       75.853797
 31
        0.000000
  0
LINE
  8
10
 10
      129.909130
 20
       76.925593
 30
        0.000000
 11
      133.909130
 21
       77.997390
 31
        0.000000
  0
LINE
  8
10
 10
      180.909130
 20
       76.925593
 30
        0.000000
 11
      184.909130
 21
       76.925593
 31
        0.000000
  0
LINE
  8
10
 10
      184.909130
 20
       76.925593
 30
        0.000000
 11
      180.909130
 21
       77.997390
 31
        0.000000
  0
LINE
  8
10
 10
      184.909130
 20
       76.925593
 30
        0.000000
 11
      180.909130
 21
       75.853796
 31
        0.000000
  0
TEXT
  8
10
 10
      151.409130
 20
       78.925593
 30
        0.000000
 40
        6.000000
  1
５５
 50
        0.000000
 41
        1.000000
 51
        0.000000
  7
BIGFONT
  0
ENDBLK
  0
BLOCK
  8
0
  2
BLK0002
 70
    64
 10
        0.000000
 20
        0.000000
  0
LINE
  8
10
 10
      185.409130
 20
       65.000000
 30
        0.000000
 11
      206.838237
 21
       65.000000
 31
        0.000000
  0
LINE
  8
10
 10
      186.909130
 20
        0.000000
 30
        0.000000
 11
      206.838237
 21
        0.000000
 31
        0.000000
  0
LINE
  8
10
 10
      203.838237
 20
       61.000000
 30
        0.000000
 11
      203.838237
 21
        4.000000
 31
        0.000000
  0
LINE
  8
10
 10
      203.838237
 20
       61.000000
 30
        0.000000
 11
      203.838237
 21
       65.000000
 31
        0.000000
  0
LINE
  8
10
 10
      203.838237
 20
       65.000000
 30
        0.000000
 11
      202.766440
 21
       61.000000
 31
        0.000000
  0
LINE
  8
10
 10
      203.838237
 20
       65.000000
 30
        0.000000
 11
      204.910034
 21
       61.000000
 31
        0.000000
  0
LINE
  8
10
 10
      203.838236
 20
        4.000000
 30
        0.000000
 11
      203.838237
 21
        0.000000
 31
        0.000000
  0
LINE
  8
10
 10
      203.838237
 20
        0.000000
 30
        0.000000
 11
      204.910033
 21
        4.000000
 31
        0.000000
  0
LINE
  8
10
 10
      203.838237
 20
        0.000000
 30
        0.000000
 11
      202.766439
 21
        4.000000
 31
        0.000000
  0
TEXT
  8
10
 10
      201.838237
 20
       26.500000
 30
        0.000000
 40
        6.000000
  1
６５
 50
       90.000000
 41
        1.000000
 51
        0.000000
  7
BIGFONT
  0
ENDBLK
  0
BLOCK
  8
0
  2
BLK0003
 70
    64
 10
        0.000000
 20
        0.000000
  0
LINE
  8
10
 10
      137.409130
 20
       -7.000000
 30
        0.000000
 11
      137.409130
 21
      -18.065541
 31
        0.000000
  0
LINE
  8
10
 10
      177.409130
 20
       -7.000000
 30
        0.000000
 11
      177.409130
 21
      -18.065541
 31
        0.000000
  0
LINE
  8
10
 10
      141.409130
 20
      -15.065541
 30
        0.000000
 11
      173.409130
 21
      -15.065541
 31
        0.000000
  0
LINE
  8
10
 10
      141.409130
 20
      -15.065541
 30
        0.000000
 11
      137.409130
 21
      -15.065541
 31
        0.000000
  0
LINE
  8
10
 10
      137.409130
 20
      -15.065541
 30
        0.000000
 11
      141.409130
 21
      -16.137338
 31
        0.000000
  0
LINE
  8
10
 10
      137.409130
 20
      -15.065541
 30
        0.000000
 11
      141.409130
 21
      -13.993744
 31
        0.000000
  0
LINE
  8
10
 10
      173.409130
 20
      -15.065541
 30
        0.000000
 11
      177.409130
 21
      -15.065541
 31
        0.000000
  0
LINE
  8
10
 10
      177.409130
 20
      -15.065541
 30
        0.000000
 11
      173.409130
 21
      -13.993744
 31
        0.000000
  0
LINE
  8
10
 10
      177.409130
 20
      -15.065541
 30
        0.000000
 11
      173.409130
 21
      -16.137338
 31
        0.000000
  0
TEXT
  8
10
 10
      151.409130
 20
      -13.065541
 30
        0.000000
 40
        6.000000
  1
４０
 50
        0.000000
 41
        1.000000
 51
        0.000000
  7
BIGFONT
  0
ENDBLK
  0
BLOCK
  8
0
  2
BLK0004
 70
    64
 10
        0.000000
 20
        0.000000
  0
LINE
  8
10
 10
       80.000000
 20
       -0.500000
 30
        0.000000
 11
       80.000000
 21
      -17.799464
 31
        0.000000
  0
LINE
  8
10
 10
       65.000000
 20
       -7.000000
 30
        0.000000
 11
       65.000000
 21
      -17.799464
 31
        0.000000
  0
LINE
  8
10
 10
       76.000000
 20
      -14.799464
 30
        0.000000
 11
       69.000000
 21
      -14.799464
 31
        0.000000
  0
LINE
  8
10
 10
       76.000000
 20
      -14.799464
 30
        0.000000
 11
       80.000000
 21
      -14.799464
 31
        0.000000
  0
LINE
  8
10
 10
       80.000000
 20
      -14.799464
 30
        0.000000
 11
       76.000000
 21
      -13.727668
 31
        0.000000
  0
LINE
  8
10
 10
       80.000000
 20
      -14.799464
 30
        0.000000
 11
       76.000000
 21
      -15.871261
 31
        0.000000
  0
LINE
  8
10
 10
       69.000000
 20
      -14.799464
 30
        0.000000
 11
       65.000000
 21
      -14.799464
 31
        0.000000
  0
LINE
  8
10
 10
       65.000000
 20
      -14.799464
 30
        0.000000
 11
       69.000000
 21
      -15.871261
 31
        0.000000
  0
LINE
  8
10
 10
       65.000000
 20
      -14.799464
 30
        0.000000
 11
       69.000000
 21
      -13.727667
 31
        0.000000
  0
TEXT
  8
10
 10
       66.500000
 20
      -12.799464
 30
        0.000000
 40
        6.000000
  1
１５
 50
        0.000000
 41
        1.000000
 51
        0.000000
  7
BIGFONT
  0
ENDBLK
  0
BLOCK
  8
0
  2
BLK0005
 70
    64
 10
        0.000000
 20
        0.000000
  0
LINE
  8
10
 10
      -65.000000
 20
       -7.000000
 30
        0.000000
 11
      -65.000000
 21
      -17.799464
 31
        0.000000
  0
LINE
  8
10
 10
       65.000000
 20
       -7.000000
 30
        0.000000
 11
       65.000000
 21
      -17.799464
 31
        0.000000
  0
LINE
  8
10
 10
      -61.000000
 20
      -14.799464
 30
        0.000000
 11
       61.000000
 21
      -14.799464
 31
        0.000000
  0
LINE
  8
10
 10
      -61.000000
 20
      -14.799464
 30
        0.000000
 11
      -65.000000
 21
      -14.799464
 31
        0.000000
  0
LINE
  8
10
 10
      -65.000000
 20
      -14.799464
 30
        0.000000
 11
      -61.000000
 21
      -15.871261
 31
        0.000000
  0
LINE
  8
10
 10
      -65.000000
 20
      -14.799464
 30
        0.000000
 11
      -61.000000
 21
      -13.727667
 31
        0.000000
  0
LINE
  8
10
 10
       61.000000
 20
      -14.799464
 30
        0.000000
 11
       65.000000
 21
      -14.799464
 31
        0.000000
  0
LINE
  8
10
 10
       65.000000
 20
      -14.799464
 30
        0.000000
 11
       61.000000
 21
      -13.727668
 31
        0.000000
  0
LINE
  8
10
 10
       65.000000
 20
      -14.799464
 30
        0.000000
 11
       61.000000
 21
      -15.871261
 31
        0.000000
  0
TEXT
  8
10
 10
       -9.000000
 20
      -12.799464
 30
        0.000000
 40
        6.000000
  1
１３０
 50
        0.000000
 41
        1.000000
 51
        0.000000
  7
BIGFONT
  0
ENDBLK
  0
BLOCK
  8
0
  2
BLK0006
 70
    64
 10
        0.000000
 20
        0.000000
  0
LINE
  8
10
 10
      -54.000000
 20
       52.500000
 30
        0.000000
 11
      -63.500000
 21
       52.500000
 31
        0.000000
  0
LINE
  8
10
 10
      -54.000000
 20
       12.500000
 30
        0.000000
 11
      -63.500000
 21
       12.500000
 31
        0.000000
  0
LINE
  8
10
 10
      -60.500000
 20
       48.500000
 30
        0.000000
 11
      -60.500000
 21
       16.500000
 31
        0.000000
  0
LINE
  8
10
 10
      -60.500000
 20
       48.500000
 30
        0.000000
 11
      -60.500000
 21
       52.500000
 31
        0.000000
  0
LINE
  8
10
 10
      -60.500000
 20
       52.500000
 30
        0.000000
 11
      -61.571797
 21
       48.500000
 31
        0.000000
  0
LINE
  8
10
 10
      -60.500000
 20
       52.500000
 30
        0.000000
 11
      -59.428203
 21
       48.500000
 31
        0.000000
  0
LINE
  8
10
 10
      -60.500001
 20
       16.500000
 30
        0.000000
 11
      -60.500000
 21
       12.500000
 31
        0.000000
  0
LINE
  8
10
 10
      -60.500000
 20
       12.500000
 30
        0.000000
 11
      -59.428204
 21
       16.500000
 31
        0.000000
  0
LINE
  8
10
 10
      -60.500000
 20
       12.500000
 30
        0.000000
 11
      -61.571798
 21
       16.500000
 31
        0.000000
  0
TEXT
  8
10
 10
      -62.500000
 20
       26.500000
 30
        0.000000
 40
        6.000000
  1
４０
 50
       90.000000
 41
        1.000000
 51
        0.000000
  7
BIGFONT
  0
ENDBLK
  0
BLOCK
  8
0
  2
BLK0007
 70
    64
 10
        0.000000
 20
        0.000000
  0
LINE
  8
10
 10
      -50.000000
 20
       56.500000
 30
        0.000000
 11
      -50.000000
 21
       78.769048
 31
        0.000000
  0
LINE
  8
10
 10
       50.000000
 20
       56.500000
 30
        0.000000
 11
       50.000000
 21
       78.769048
 31
        0.000000
  0
LINE
  8
10
 10
      -46.000000
 20
       75.769048
 30
        0.000000
 11
       46.000000
 21
       75.769048
 31
        0.000000
  0
LINE
  8
10
 10
      -46.000000
 20
       75.769048
 30
        0.000000
 11
      -50.000000
 21
       75.769048
 31
        0.000000
  0
LINE
  8
10
 10
      -50.000000
 20
       75.769048
 30
        0.000000
 11
      -46.000000
 21
       74.697251
 31
        0.000000
  0
LINE
  8
10
 10
      -50.000000
 20
       75.769048
 30
        0.000000
 11
      -46.000000
 21
       76.840845
 31
        0.000000
  0
LINE
  8
10
 10
       46.000000
 20
       75.769048
 30
        0.000000
 11
       50.000000
 21
       75.769048
 31
        0.000000
  0
LINE
  8
10
 10
       50.000000
 20
       75.769048
 30
        0.000000
 11
       46.000000
 21
       76.840844
 31
        0.000000
  0
LINE
  8
10
 10
       50.000000
 20
       75.769048
 30
        0.000000
 11
       46.000000
 21
       74.697251
 31
        0.000000
  0
TEXT
  8
10
 10
       -9.000000
 20
       77.769048
 30
        0.000000
 40
        6.000000
  1
１００
 50
        0.000000
 41
        1.000000
 51
        0.000000
  7
BIGFONT
  0
ENDBLK
  0
BLOCK
  8
0
  2
BLK0008
 70
    64
 10
        0.000000
 20
        0.000000
  0
LINE
  8
10
 10
      -54.000000
 20
       52.500000
 30
        0.000000
 11
      -63.495645
 21
       52.500000
 31
        0.000000
  0
LINE
  8
10
 10
      -54.000000
 20
       65.000000
 30
        0.000000
 11
      -63.495645
 21
       65.000000
 31
        0.000000
  0
LINE
  8
10
 10
      -60.495645
 20
       56.500000
 30
        0.000000
 11
      -60.495645
 21
       61.000000
 31
        0.000000
  0
LINE
  8
10
 10
      -60.495645
 20
       65.000000
 30
        0.000000
 11
      -60.495645
 21
       89.000000
 31
        0.000000
  0
LINE
  8
10
 10
      -60.495645
 20
       56.500000
 30
        0.000000
 11
      -60.495645
 21
       52.500000
 31
        0.000000
  0
LINE
  8
10
 10
      -60.495645
 20
       52.500000
 30
        0.000000
 11
      -59.423848
 21
       56.500000
 31
        0.000000
  0
LINE
  8
10
 10
      -60.495645
 20
       52.500000
 30
        0.000000
 11
      -61.567442
 21
       56.500000
 31
        0.000000
  0
LINE
  8
10
 10
      -60.495645
 20
       61.000000
 30
        0.000000
 11
      -60.495645
 21
       65.000000
 31
        0.000000
  0
LINE
  8
10
 10
      -60.495645
 20
       65.000000
 30
        0.000000
 11
      -61.567441
 21
       61.000000
 31
        0.000000
  0
LINE
  8
10
 10
      -60.495645
 20
       65.000000
 30
        0.000000
 11
      -59.423848
 21
       61.000000
 31
        0.000000
  0
TEXT
  8
10
 10
      -62.495645
 20
       67.000000
 30
        0.000000
 40
        6.000000
  1
１２．５
 50
       90.000000
 41
        1.000000
 51
        0.000000
  7
BIGFONT
  0
ENDBLK
  0
BLOCK
  8
0
  2
BLK0009
 70
    64
 10
        0.000000
 20
        0.000000
  0
LINE
  8
10
 10
       80.000000
 20
       67.000000
 30
        0.000000
 11
       80.000000
 21
       78.769048
 31
        0.000000
  0
LINE
  8
10
 10
       50.000000
 20
       56.500000
 30
        0.000000
 11
       50.000000
 21
       78.769048
 31
        0.000000
  0
LINE
  8
10
 10
       76.000000
 20
       75.769048
 30
        0.000000
 11
       54.000000
 21
       75.769048
 31
        0.000000
  0
LINE
  8
10
 10
       76.000000
 20
       75.769048
 30
        0.000000
 11
       80.000000
 21
       75.769048
 31
        0.000000
  0
LINE
  8
10
 10
       80.000000
 20
       75.769048
 30
        0.000000
 11
       76.000000
 21
       76.840844
 31
        0.000000
  0
LINE
  8
10
 10
       80.000000
 20
       75.769048
 30
        0.000000
 11
       76.000000
 21
       74.697251
 31
        0.000000
  0
LINE
  8
10
 10
       54.000000
 20
       75.769048
 30
        0.000000
 11
       50.000000
 21
       75.769048
 31
        0.000000
  0
LINE
  8
10
 10
       50.000000
 20
       75.769048
 30
        0.000000
 11
       54.000000
 21
       74.697251
 31
        0.000000
  0
LINE
  8
10
 10
       50.000000
 20
       75.769048
 30
        0.000000
 11
       54.000000
 21
       76.840845
 31
        0.000000
  0
TEXT
  8
10
 10
       59.000000
 20
       77.769048
 30
        0.000000
 40
        6.000000
  1
３０
 50
        0.000000
 41
        1.000000
 51
        0.000000
  7
BIGFONT
  0
ENDBLK
  0
BLOCK
  8
0
  2
BLK0010
 70
    64
 10
        0.000000
 20
        0.000000
  0
TEXT
  8
10
 10
       95.347046
 20
       98.919540
 30
        0.000000
 40
        6.000000
  1
４－Ｍ３ｘ５（Ｄｅｐｔｈ）
 50
        0.000000
 41
        1.000000
 51
        0.000000
  7
BIGFONT
  0
LINE
  8
10
 10
      174.347046
 20
       97.919540
 30
        0.000000
 11
       94.347046
 21
       97.919540
 31
        0.000000
  0
LINE
  8
10
 10
       94.347046
 20
       97.919540
 30
        0.000000
 11
       50.950539
 21
       53.660378
 31
        0.000000
  0
LINE
  8
10
 10
       53.302357
 20
       56.956398
 30
        0.000000
 11
       50.950539
 21
       53.660378
 31
        0.000000
  0
LINE
  8
10
 10
       50.950539
 20
       53.660378
 30
        0.000000
 11
       54.199635
 21
       56.076607
 31
        0.000000
  0
ENDBLK
  0
BLOCK
  8
0
  2
BLK0011
 70
    64
 10
        0.000000
 20
        0.000000
  0
LINE
  8
10
 10
      -80.000000
 20
      160.250925
 30
        0.000000
 11
      -80.000000
 21
      176.260500
 31
        0.000000
  0
LINE
  8
10
 10
       80.000000
 20
      160.250925
 30
        0.000000
 11
       80.000000
 21
      176.260500
 31
        0.000000
  0
LINE
  8
10
 10
      -76.000000
 20
      173.260500
 30
        0.000000
 11
       76.000000
 21
      173.260500
 31
        0.000000
  0
LINE
  8
10
 10
      -76.000000
 20
      173.260500
 30
        0.000000
 11
      -80.000000
 21
      173.260500
 31
        0.000000
  0
LINE
  8
10
 10
      -80.000000
 20
      173.260500
 30
        0.000000
 11
      -76.000000
 21
      172.188703
 31
        0.000000
  0
LINE
  8
10
 10
      -80.000000
 20
      173.260500
 30
        0.000000
 11
      -76.000000
 21
      174.332297
 31
        0.000000
  0
LINE
  8
10
 10
       76.000000
 20
      173.260500
 30
        0.000000
 11
       80.000000
 21
      173.260500
 31
        0.000000
  0
LINE
  8
10
 10
       80.000000
 20
      173.260500
 30
        0.000000
 11
       76.000000
 21
      174.332296
 31
        0.000000
  0
LINE
  8
10
 10
       80.000000
 20
      173.260500
 30
        0.000000
 11
       76.000000
 21
      172.188703
 31
        0.000000
  0
TEXT
  8
10
 10
       -9.000000
 20
      175.260500
 30
        0.000000
 40
        6.000000
  1
１６０
 50
        0.000000
 41
        1.000000
 51
        0.000000
  7
BIGFONT
  0
ENDBLK
  0
BLOCK
  8
0
  2
BLK0012
 70
    64
 10
        0.000000
 20
        0.000000
  0
TEXT
  8
10
 10
      -82.511246
 20
      -47.404285
 30
        0.000000
 40
        3.000000
  1
　　　　
 50
        0.000000
 41
        1.000000
 51
        0.000000
  7
BIGFONT
  0
LINE
  8
10
 10
      -70.011246
 20
      -47.904285
 30
        0.000000
 11
      -83.011246
 21
      -47.904285
 31
        0.000000
  0
LINE
  8
10
 10
      -83.011246
 20
      -47.904285
 30
        0.000000
 11
      -67.821014
 21
       -5.000000
 31
        0.000000
  0
LINE
  8
10
 10
      -68.081894
 20
       -8.090112
 30
        0.000000
 11
      -67.821014
 21
       -5.000000
 31
        0.000000
  0
LINE
  8
10
 10
      -67.821014
 20
       -5.000000
 30
        0.000000
 11
      -69.562622
 21
       -7.565861
 31
        0.000000
  0
ENDBLK
  0
ENDSEC
  0
SECTION
  2
ENTITIES
  0
TEXT
  8
10
 10
     -171.395213
 20
      153.879835
 30
        0.000000
 40
        5.000000
  1
ＩＶ－ＬＰ３２Ｐ
 50
        0.000000
 41
        1.000000
 51
        0.000000
  7
BIGFONT
  0
ARC
  8
0
 10
      -75.000000
 20
      156.506207
 30
        0.000000
 40
        3.744889
 50
       27.768036
 51
      152.231959
  0
ARC
  8
0
 10
      -75.000000
 20
      104.995643
 30
        0.000000
 40
        3.744889
 50
      207.768041
 51
      332.231964
  0
LINE
  8
0
 10
       80.000000
 20
       65.000000
 30
        0.000000
 11
      -80.000000
 21
       65.000000
 31
        0.000000
  0
LINE
  8
0
 10
      -80.000000
 20
      158.250925
 30
        0.000000
 11
       80.000000
 21
      158.250925
 31
        0.000000
  0
LINE
  8
0
 10
      -80.000000
 20
      103.250925
 30
        0.000000
 11
       80.000000
 21
      103.250925
 31
        0.000000
  0
LINE
  8
0
 10
      -77.000000
 20
       20.000000
 30
        0.000000
 11
      -73.000000
 21
       20.000000
 31
        0.000000
  0
CIRCLE
  8
0
 10
      -75.000000
 20
       20.000000
 30
        0.000000
 40
        3.300000
  0
LINE
  8
0
 10
       78.500000
 20
        0.000000
 30
        0.000000
 11
      -78.500000
 21
        0.000000
 31
        0.000000
  0
LINE
  8
0
 10
     -121.532971
 20
        0.000000
 30
        0.000000
 11
     -121.532971
 21
       63.500000
 31
        0.000000
  0
LINE
  8
0
 10
     -122.532971
 20
        0.000000
 30
        0.000000
 11
     -122.532971
 21
       63.500000
 31
        0.000000
  0
LINE
  8
0
 10
     -176.532971
 20
        0.000000
 30
        0.000000
 11
     -176.532971
 21
       63.500000
 31
        0.000000
  0
LINE
  8
0
 10
     -175.532971
 20
        0.000000
 30
        0.000000
 11
     -175.532971
 21
       63.500000
 31
        0.000000
  0
LINE
  8
0
 10
      -82.500000
 20
       38.000004
 30
        0.000000
 11
      -82.500000
 21
        2.999989
 31
        0.000000
  0
LINE
  8
0
 10
      -80.000000
 20
       65.000000
 30
        0.000000
 11
      -80.000000
 21
        1.500000
 31
        0.000000
  0
LINE
  8
0
 10
     -124.532981
 20
       37.500001
 30
        0.000000
 11
     -124.532981
 21
        3.499989
 31
        0.000000
  0
LINE
  8
0
 10
     -127.699641
 20
       31.499981
 30
        0.000000
 11
     -127.699641
 21
        9.500009
 31
        0.000000
  0
LINE
  8
0
 10
     -147.532961
 20
       37.500001
 30
        0.000000
 11
     -147.532961
 21
        3.499989
 31
        0.000000
  0
LINE
  8
0
 10
     -143.699641
 20
       13.499979
 30
        0.000000
 11
     -143.699641
 21
       27.500017
 31
        0.000000
  0
LINE
  8
0
 10
     -124.032971
 20
        0.000000
 30
        0.000000
 11
     -174.032971
 21
        0.000000
 31
        0.000000
  0
ARC
  8
0
 10
     -171.853986
 20
       -4.500000
 30
        0.000000
 40
        0.500000
 50
      200.097738
 51
      270.000000
  0
ARC
  8
0
 10
     -166.211955
 20
       -4.500000
 30
        0.000000
 40
        0.500000
 50
      270.000000
 51
      339.902267
  0
LINE
  8
0
 10
     -169.032971
 20
       -5.000000
 30
        0.000000
 11
     -166.211955
 21
       -5.000000
 31
        0.000000
  0
LINE
  8
0
 10
     -169.032971
 20
       -5.000000
 30
        0.000000
 11
     -171.853986
 21
       -5.000000
 31
        0.000000
  0
LINE
  8
0
 10
     -164.032971
 20
        0.000000
 30
        0.000000
 11
     -165.742401
 21
       -4.671811
 31
        0.000000
  0
LINE
  8
0
 10
     -174.032971
 20
        0.000000
 30
        0.000000
 11
     -172.323540
 21
       -4.671811
 31
        0.000000
  0
LINE
  8
0
 10
     -176.532971
 20
        0.000000
 30
        0.000000
 11
     -175.532971
 21
        0.000000
 31
        0.000000
  0
ARC
  8
0
 10
     -174.032971
 20
        1.500000
 30
        0.000000
 40
        1.500000
 50
      180.000005
 51
      270.000000
  0
LINE
  8
0
 10
     -139.866311
 20
        8.500009
 30
        0.000000
 11
     -128.699641
 21
        8.500009
 31
        0.000000
  0
LINE
  8
0
 10
     -146.532951
 20
        2.499989
 30
        0.000000
 11
     -125.532981
 21
        2.499989
 31
        0.000000
  0
ARC
  8
0
 10
     -125.532981
 20
        3.499989
 30
        0.000000
 40
        1.000000
 50
      270.000000
 51
      360.000000
  0
ARC
  8
0
 10
     -128.699641
 20
        9.500009
 30
        0.000000
 40
        1.000000
 50
      270.000000
 51
      360.000000
  0
LINE
  8
0
 10
     -122.532971
 20
        0.000000
 30
        0.000000
 11
     -121.532971
 21
        0.000000
 31
        0.000000
  0
ARC
  8
0
 10
     -131.853986
 20
       -4.500000
 30
        0.000000
 40
        0.500000
 50
      200.097738
 51
      270.000000
  0
LINE
  8
0
 10
     -129.032971
 20
       -5.000000
 30
        0.000000
 11
     -131.853986
 21
       -5.000000
 31
        0.000000
  0
LINE
  8
0
 10
     -134.032971
 20
        0.000000
 30
        0.000000
 11
     -132.323540
 21
       -4.671811
 31
        0.000000
  0
ARC
  8
0
 10
     -126.211955
 20
       -4.500000
 30
        0.000000
 40
        0.500000
 50
      270.000000
 51
      339.902267
  0
LINE
  8
0
 10
     -129.032971
 20
       -5.000000
 30
        0.000000
 11
     -126.211955
 21
       -5.000000
 31
        0.000000
  0
LINE
  8
0
 10
     -124.032971
 20
        0.000000
 30
        0.000000
 11
     -125.742401
 21
       -4.671811
 31
        0.000000
  0
ARC
  8
0
 10
     -124.032971
 20
        1.500000
 30
        0.000000
 40
        1.500000
 50
      270.000000
 51
      360.000000
  0
LINE
  8
0
 10
     -139.866311
 20
        8.500009
 30
        0.000000
 11
     -143.699641
 21
       13.499979
 31
        0.000000
  0
LINE
  8
0
 10
     -132.191711
 20
       14.491069
 30
        0.000000
 11
     -136.191731
 21
       14.491069
 31
        0.000000
  0
LINE
  8
0
 10
     -136.191731
 20
       12.491069
 30
        0.000000
 11
     -132.191711
 21
       12.491069
 31
        0.000000
  0
LINE
  8
0
 10
     -136.191731
 20
       14.491069
 30
        0.000000
 11
     -136.191731
 21
       12.491069
 31
        0.000000
  0
LINE
  8
0
 10
     -132.191711
 20
       12.491069
 30
        0.000000
 11
     -132.191711
 21
       14.491069
 31
        0.000000
  0
ARC
  8
0
 10
     -146.532951
 20
        3.499989
 30
        0.000000
 40
        1.000000
 50
      180.000005
 51
      270.000000
  0
LINE
  8
0
 10
      -82.000000
 20
        2.499989
 30
        0.000000
 11
      -80.000000
 21
        2.499989
 31
        0.000000
  0
ARC
  8
0
 10
      -82.000000
 20
        2.999989
 30
        0.000000
 40
        0.500000
 50
      180.000005
 51
      270.000000
  0
ARC
  8
0
 10
      -78.500000
 20
        1.500000
 30
        0.000000
 40
        1.500000
 50
      180.000005
 51
      270.000000
  0
TEXT
  8
5
 10
     -167.987859
 20
       56.875802
 30
        0.000000
 40
        1.875000
  1
ＬＡＭＰ　１
 50
        0.000000
 41
        1.000000
 51
        0.000000
  7
BIGFONT
  0
LINE
  8
0
 10
     -175.032971
 20
       65.000000
 30
        0.000000
 11
     -123.032971
 21
       65.000000
 31
        0.000000
  0
LINE
  8
0
 10
     -175.032971
 20
       64.000000
 30
        0.000000
 11
     -123.032971
 21
       64.000000
 31
        0.000000
  0
LINE
  8
0
 10
     -175.532971
 20
       63.500000
 30
        0.000000
 11
     -122.532971
 21
       63.500000
 31
        0.000000
  0
TEXT
  8
5
 10
     -167.717682
 20
       42.801685
 30
        0.000000
 40
        1.875000
  1
ＬＡＭＰ　２
 50
        0.000000
 41
        1.000000
 51
        0.000000
  7
BIGFONT
  0
ARC
  8
0
 10
     -174.788253
 20
       19.986368
 30
        0.000000
 40
        3.744889
 50
      117.768033
 51
      242.231967
  0
ARC
  8
0
 10
     -175.032971
 20
       63.500000
 30
        0.000000
 40
        1.500000
 50
       90.000000
 51
      180.000005
  0
ARC
  8
0
 10
     -175.032971
 20
       63.500000
 30
        0.000000
 40
        0.500000
 50
       90.000000
 51
      180.000005
  0
TEXT
  8
5
 10
     -142.258782
 20
       40.077991
 30
        0.000000
 40
        1.875000
  1
ＡＣ１００Ｖ
 50
        0.000000
 41
        1.000000
 51
        0.000000
  7
BIGFONT
  0
LINE
  8
0
 10
     -139.866311
 20
       32.499984
 30
        0.000000
 11
     -128.699641
 21
       32.499984
 31
        0.000000
  0
LINE
  8
0
 10
     -125.532981
 20
       38.500004
 30
        0.000000
 11
     -146.532951
 21
       38.500004
 31
        0.000000
  0
ARC
  8
0
 10
     -125.532981
 20
       37.500001
 30
        0.000000
 40
        1.000000
 50
        0.000000
 51
       90.000000
  0
ARC
  8
0
 10
     -128.699641
 20
       31.499981
 30
        0.000000
 40
        1.000000
 50
        0.000000
 51
       90.000000
  0
ARC
  8
0
 10
     -123.277689
 20
       19.986368
 30
        0.000000
 40
        3.744889
 50
      297.768038
 51
      422.231962
  0
ARC
  8
0
 10
     -146.532951
 20
       37.500001
 30
        0.000000
 40
        1.000000
 50
       90.000000
 51
      180.000005
  0
LINE
  8
0
 10
     -143.699641
 20
       27.500017
 30
        0.000000
 11
     -139.866311
 21
       32.499984
 31
        0.000000
  0
LINE
  8
0
 10
     -140.202971
 20
       19.498509
 30
        0.000000
 11
     -136.202961
 21
       19.498509
 31
        0.000000
  0
LINE
  8
0
 10
     -136.202961
 20
       21.498519
 30
        0.000000
 11
     -140.202971
 21
       21.498519
 31
        0.000000
  0
LINE
  8
0
 10
     -136.202961
 20
       19.498509
 30
        0.000000
 11
     -136.202961
 21
       21.498519
 31
        0.000000
  0
LINE
  8
0
 10
     -140.202971
 20
       21.498519
 30
        0.000000
 11
     -140.202971
 21
       19.498509
 31
        0.000000
  0
LINE
  8
0
 10
     -136.191731
 20
       26.491056
 30
        0.000000
 11
     -132.191711
 21
       26.491056
 31
        0.000000
  0
LINE
  8
0
 10
     -132.191711
 20
       28.491063
 30
        0.000000
 11
     -136.191731
 21
       28.491063
 31
        0.000000
  0
LINE
  8
0
 10
     -136.191731
 20
       28.491063
 30
        0.000000
 11
     -136.191731
 21
       26.491056
 31
        0.000000
  0
LINE
  8
0
 10
     -132.191711
 20
       26.491056
 30
        0.000000
 11
     -132.191711
 21
       28.491063
 31
        0.000000
  0
TEXT
  8
5
 10
     -144.647864
 20
       57.125547
 30
        0.000000
 40
        1.875000
  1
ＥＸＴ　ＣＯＮＴ
 50
        0.000000
 41
        1.000000
 51
        0.000000
  7
BIGFONT
  0
ARC
  8
0
 10
     -123.032971
 20
       63.500000
 30
        0.000000
 40
        1.500000
 50
        0.000000
 51
       90.000000
  0
ARC
  8
0
 10
     -123.032971
 20
       63.500000
 30
        0.000000
 40
        0.500000
 50
        0.000000
 51
       90.000000
  0
LINE
  8
0
 10
      -88.807101
 20
       41.352914
 30
        0.000000
 11
      -87.807091
 21
       40.352914
 31
        0.000000
  0
LINE
  8
0
 10
      -90.000081
 20
       40.352914
 30
        0.000000
 11
      -88.807101
 21
       41.352914
 31
        0.000000
  0
LINE
  8
0
 10
      -90.000081
 20
       40.352914
 30
        0.000000
 11
      -90.000081
 21
       35.002864
 31
        0.000000
  0
LINE
  8
0
 10
      -86.142561
 20
       39.402894
 30
        0.000000
 11
      -80.000081
 21
       39.402894
 31
        0.000000
  0
LINE
  8
0
 10
      -86.142561
 20
       35.902904
 30
        0.000000
 11
      -82.500000
 21
       35.902904
 31
        0.000000
  0
LINE
  8
0
 10
      -86.142561
 20
       35.902904
 30
        0.000000
 11
      -86.142561
 21
       39.402894
 31
        0.000000
  0
LINE
  8
0
 10
      -90.000081
 20
       40.352914
 30
        0.000000
 11
      -80.000081
 21
       40.352914
 31
        0.000000
  0
LINE
  8
0
 10
      -82.500000
 20
       35.002922
 30
        0.000000
 11
      -90.000081
 21
       35.003094
 31
        0.000000
  0
LINE
  8
0
 10
      -80.000000
 20
       38.500004
 30
        0.000000
 11
      -82.000000
 21
       38.500004
 31
        0.000000
  0
ARC
  8
0
 10
      -82.000000
 20
       38.000004
 30
        0.000000
 40
        0.500000
 50
       90.000000
 51
      180.000005
  0
LINE
  8
0
 10
      -75.000000
 20
       18.000000
 30
        0.000000
 11
      -75.000000
 21
       22.000000
 31
        0.000000
  0
LINE
  8
0
 10
      -88.807101
 20
       56.479776
 30
        0.000000
 11
      -87.807091
 21
       55.479776
 31
        0.000000
  0
LINE
  8
0
 10
      -90.000081
 20
       55.479776
 30
        0.000000
 11
      -88.807101
 21
       56.479776
 31
        0.000000
  0
LINE
  8
0
 10
      -90.000081
 20
       55.479776
 30
        0.000000
 11
      -90.000081
 21
       50.129726
 31
        0.000000
  0
LINE
  8
0
 10
      -86.142561
 20
       54.529756
 30
        0.000000
 11
      -80.000081
 21
       54.529756
 31
        0.000000
  0
LINE
  8
0
 10
      -86.142561
 20
       51.029766
 30
        0.000000
 11
      -80.000081
 21
       51.029766
 31
        0.000000
  0
LINE
  8
0
 10
      -86.142561
 20
       51.029766
 30
        0.000000
 11
      -86.142561
 21
       54.529756
 31
        0.000000
  0
LINE
  8
0
 10
      -90.000081
 20
       55.479776
 30
        0.000000
 11
      -80.000081
 21
       55.479776
 31
        0.000000
  0
LINE
  8
0
 10
      -80.000000
 20
       50.129726
 30
        0.000000
 11
      -90.000081
 21
       50.129956
 31
        0.000000
  0
LINE
  8
0
 10
      -90.000081
 20
      112.950925
 30
        0.000000
 11
      -90.000081
 21
      126.550925
 31
        0.000000
  0
LINE
  8
0
 10
      -80.000000
 20
      158.250925
 30
        0.000000
 11
      -80.000000
 21
      103.250925
 31
        0.000000
  0
ARC
  8
0
 10
      -82.000000
 20
      106.750925
 30
        0.000000
 40
        0.500000
 50
      180.000005
 51
      270.000000
  0
LINE
  8
0
 10
      -80.000000
 20
      106.250925
 30
        0.000000
 11
      -82.000000
 21
      106.250925
 31
        0.000000
  0
LINE
  8
0
 10
      -82.500000
 20
      106.750925
 30
        0.000000
 11
      -82.500000
 21
      110.746889
 31
        0.000000
  0
LINE
  8
0
 10
      -81.597732
 20
      110.200945
 30
        0.000000
 11
      -80.000000
 21
      111.858647
 31
        0.000000
  0
LINE
  8
0
 10
      -87.807091
 20
      118.250915
 30
        0.000000
 11
      -87.807091
 21
      121.250915
 31
        0.000000
  0
LINE
  8
0
 10
      -88.807101
 20
      118.250915
 30
        0.000000
 11
      -88.807101
 21
      121.250915
 31
        0.000000
  0
LINE
  8
0
 10
      -90.000081
 20
      121.250915
 30
        0.000000
 11
      -80.000000
 21
      121.250915
 31
        0.000000
  0
LINE
  8
0
 10
      -90.000081
 20
      118.250915
 30
        0.000000
 11
      -80.000000
 21
      118.250915
 31
        0.000000
  0
LINE
  8
0
 10
      -86.142561
 20
      112.950925
 30
        0.000000
 11
      -81.597732
 21
      110.200945
 31
        0.000000
  0
LINE
  8
0
 10
      -90.000081
 20
      112.950925
 30
        0.000000
 11
      -80.000000
 21
      112.950925
 31
        0.000000
  0
LINE
  8
0
 10
      -81.680333
 20
      129.250925
 30
        0.000000
 11
      -82.000000
 21
      129.250925
 31
        0.000000
  0
ARC
  8
0
 10
      -82.000000
 20
      128.750925
 30
        0.000000
 40
        0.500000
 50
       90.000000
 51
      180.000005
  0
LINE
  8
0
 10
      -80.000000
 20
      129.250925
 30
        0.000000
 11
      -81.549560
 21
      129.250925
 31
        0.000000
  0
LINE
  8
0
 10
      -81.597732
 20
      139.501491
 30
        0.000000
 11
      -80.000000
 21
      141.159193
 31
        0.000000
  0
LINE
  8
0
 10
      -81.597732
 20
      150.501451
 30
        0.000000
 11
      -80.000000
 21
      148.843750
 31
        0.000000
  0
LINE
  8
0
 10
      -81.597732
 20
      129.300905
 30
        0.000000
 11
      -80.000000
 21
      127.643204
 31
        0.000000
  0
LINE
  8
0
 10
      -90.000081
 20
      142.251471
 30
        0.000000
 11
      -90.000081
 21
      147.751471
 31
        0.000000
  0
LINE
  8
0
 10
      -88.807101
 20
      143.501461
 30
        0.000000
 11
      -88.807101
 21
      146.501461
 31
        0.000000
  0
LINE
  8
0
 10
      -87.807091
 20
      143.501461
 30
        0.000000
 11
      -87.807091
 21
      146.501461
 31
        0.000000
  0
LINE
  8
0
 10
      -90.000081
 20
      146.501461
 30
        0.000000
 11
      -87.807091
 21
      146.501461
 31
        0.000000
  0
LINE
  8
0
 10
      -90.000081
 20
      143.501461
 30
        0.000000
 11
      -87.807091
 21
      143.501461
 31
        0.000000
  0
LINE
  8
0
 10
      -86.142561
 20
      142.251471
 30
        0.000000
 11
      -81.597732
 21
      139.501491
 31
        0.000000
  0
LINE
  8
0
 10
      -90.000081
 20
      142.251471
 30
        0.000000
 11
      -80.000000
 21
      142.251471
 31
        0.000000
  0
LINE
  8
0
 10
      -86.142561
 20
      147.751471
 30
        0.000000
 11
      -81.597732
 21
      150.501451
 31
        0.000000
  0
LINE
  8
0
 10
      -90.000081
 20
      147.751471
 30
        0.000000
 11
      -80.000000
 21
      147.751471
 31
        0.000000
  0
LINE
  8
0
 10
      -90.000081
 20
      126.550925
 30
        0.000000
 11
      -80.000000
 21
      126.550925
 31
        0.000000
  0
LINE
  8
0
 10
      -86.142561
 20
      126.550925
 30
        0.000000
 11
      -81.597732
 21
      129.300905
 31
        0.000000
  0
ARC
  8
0
 10
       75.000000
 20
      156.506207
 30
        0.000000
 40
        3.744889
 50
       27.768036
 51
      152.231959
  0
LINE
  8
0
 10
       80.000000
 20
       65.000000
 30
        0.000000
 11
       80.000000
 21
        1.500000
 31
        0.000000
  0
ARC
  8
0
 10
      112.501096
 20
        5.790882
 30
        0.000000
 40
       30.909676
 50
      150.168780
 51
      170.673705
  0
LINE
  8
0
 10
       82.000000
 20
       28.000000
 30
        0.000000
 11
       82.000000
 21
        8.000000
 31
        0.000000
  0
LINE
  8
0
 10
       80.000000
 20
       29.469375
 30
        0.000000
 11
       80.000000
 21
        8.469375
 31
        0.000000
  0
CIRCLE
  8
0
 10
      -50.000000
 20
       12.500000
 30
        0.000000
 40
        1.200000
  0
CIRCLE
  8
0
 10
      -50.000000
 20
       12.500000
 30
        0.000000
 40
        1.500000
  0
LINE
  8
0
 10
      -70.000000
 20
        0.000000
 30
        0.000000
 11
      -68.290569
 21
       -4.671811
 31
        0.000000
  0
LINE
  8
0
 10
      -60.000000
 20
        0.000000
 30
        0.000000
 11
      -61.709431
 21
       -4.671811
 31
        0.000000
  0
ARC
  8
0
 10
      -62.178985
 20
       -4.500000
 30
        0.000000
 40
        0.500000
 50
      270.000000
 51
      339.902267
  0
LINE
  8
0
 10
      -65.000000
 20
       -5.000000
 30
        0.000000
 11
      -67.821015
 21
       -5.000000
 31
        0.000000
  0
ARC
  8
0
 10
      -67.821015
 20
       -4.500000
 30
        0.000000
 40
        0.500000
 50
      200.097738
 51
      270.000000
  0
LINE
  8
0
 10
      -65.000000
 20
       -5.000000
 30
        0.000000
 11
      -62.178985
 21
       -5.000000
 31
        0.000000
  0
LINE
  8
0
 10
       65.000000
 20
       -5.000000
 30
        0.000000
 11
       62.178985
 21
       -5.000000
 31
        0.000000
  0
CIRCLE
  8
0
 10
       50.000000
 20
       12.500000
 30
        0.000000
 40
        1.500000
  0
CIRCLE
  8
0
 10
       50.000000
 20
       12.500000
 30
        0.000000
 40
        1.200000
  0
LINE
  8
0
 10
       60.000000
 20
        0.000000
 30
        0.000000
 11
       61.709431
 21
       -4.671811
 31
        0.000000
  0
ARC
  8
0
 10
       62.178985
 20
       -4.500000
 30
        0.000000
 40
        0.500000
 50
      200.097738
 51
      270.000000
  0
LINE
  8
0
 10
       70.000000
 20
        0.000000
 30
        0.000000
 11
       68.290569
 21
       -4.671811
 31
        0.000000
  0
ARC
  8
0
 10
       67.821015
 20
       -4.500000
 30
        0.000000
 40
        0.500000
 50
      270.000000
 51
      339.902267
  0
LINE
  8
0
 10
       65.000000
 20
       -5.000000
 30
        0.000000
 11
       67.821015
 21
       -5.000000
 31
        0.000000
  0
ARC
  8
0
 10
       81.500000
 20
        8.000000
 30
        0.000000
 40
        0.500000
 50
      270.000000
 51
      360.000000
  0
ARC
  8
0
 10
       78.500000
 20
        1.500000
 30
        0.000000
 40
        1.500000
 50
      270.000000
 51
      360.000000
  0
LINE
  8
0
 10
       81.500000
 20
        7.500000
 30
        0.000000
 11
       80.000000
 21
        7.500000
 31
        0.000000
  0
CIRCLE
  8
0
 10
       18.000000
 20
       60.000000
 30
        0.000000
 40
        1.000000
  0
CIRCLE
  8
0
 10
       18.000000
 20
       54.000000
 30
        0.000000
 40
        1.000000
  0
CIRCLE
  8
0
 10
      -27.000000
 20
       60.000000
 30
        0.000000
 40
        1.000000
  0
CIRCLE
  8
0
 10
      -28.500000
 20
       57.000000
 30
        0.000000
 40
        1.000000
  0
CIRCLE
  8
0
 10
      -27.000000
 20
       54.000000
 30
        0.000000
 40
        1.000000
  0
CIRCLE
  8
0
 10
      -50.000000
 20
       52.500000
 30
        0.000000
 40
        1.200000
  0
CIRCLE
  8
0
 10
      -50.000000
 20
       52.500000
 30
        0.000000
 40
        1.500000
  0
CIRCLE
  8
0
 10
      -33.000000
 20
       60.000000
 30
        0.000000
 40
        1.000000
  0
CIRCLE
  8
0
 10
      -31.500000
 20
       57.000000
 30
        0.000000
 40
        1.000000
  0
CIRCLE
  8
0
 10
      -30.000000
 20
       60.000000
 30
        0.000000
 40
        1.000000
  0
CIRCLE
  8
0
 10
      -36.000000
 20
       60.000000
 30
        0.000000
 40
        1.000000
  0
CIRCLE
  8
0
 10
      -34.500000
 20
       57.000000
 30
        0.000000
 40
        1.000000
  0
CIRCLE
  8
0
 10
      -39.000000
 20
       60.000000
 30
        0.000000
 40
        1.000000
  0
CIRCLE
  8
0
 10
      -42.000000
 20
       60.000000
 30
        0.000000
 40
        1.000000
  0
CIRCLE
  8
0
 10
      -40.500000
 20
       57.000000
 30
        0.000000
 40
        1.000000
  0
CIRCLE
  8
0
 10
      -37.500000
 20
       57.000000
 30
        0.000000
 40
        1.000000
  0
CIRCLE
  8
0
 10
      -33.000000
 20
       54.000000
 30
        0.000000
 40
        1.000000
  0
CIRCLE
  8
0
 10
      -30.000000
 20
       54.000000
 30
        0.000000
 40
        1.000000
  0
CIRCLE
  8
0
 10
      -36.000000
 20
       54.000000
 30
        0.000000
 40
        1.000000
  0
CIRCLE
  8
0
 10
      -39.000000
 20
       54.000000
 30
        0.000000
 40
        1.000000
  0
CIRCLE
  8
0
 10
      -42.000000
 20
       54.000000
 30
        0.000000
 40
        1.000000
  0
CIRCLE
  8
0
 10
       -4.500000
 20
       57.000000
 30
        0.000000
 40
        1.000000
  0
CIRCLE
  8
0
 10
       -6.000000
 20
       60.000000
 30
        0.000000
 40
        1.000000
  0
CIRCLE
  8
0
 10
       -6.000000
 20
       54.000000
 30
        0.000000
 40
        1.000000
  0
CIRCLE
  8
0
 10
      -15.000000
 20
       60.000000
 30
        0.000000
 40
        1.000000
  0
CIRCLE
  8
0
 10
      -13.500000
 20
       57.000000
 30
        0.000000
 40
        1.000000
  0
CIRCLE
  8
0
 10
      -16.500000
 20
       57.000000
 30
        0.000000
 40
        1.000000
  0
CIRCLE
  8
0
 10
      -19.500000
 20
       57.000000
 30
        0.000000
 40
        1.000000
  0
CIRCLE
  8
0
 10
      -21.000000
 20
       60.000000
 30
        0.000000
 40
        1.000000
  0
CIRCLE
  8
0
 10
      -24.000000
 20
       60.000000
 30
        0.000000
 40
        1.000000
  0
CIRCLE
  8
0
 10
      -22.500000
 20
       57.000000
 30
        0.000000
 40
        1.000000
  0
CIRCLE
  8
0
 10
      -18.000000
 20
       60.000000
 30
        0.000000
 40
        1.000000
  0
CIRCLE
  8
0
 10
       -7.500000
 20
       57.000000
 30
        0.000000
 40
        1.000000
  0
CIRCLE
  8
0
 10
      -12.000000
 20
       60.000000
 30
        0.000000
 40
        1.000000
  0
CIRCLE
  8
0
 10
      -10.500000
 20
       57.000000
 30
        0.000000
 40
        1.000000
  0
CIRCLE
  8
0
 10
       -9.000000
 20
       60.000000
 30
        0.000000
 40
        1.000000
  0
CIRCLE
  8
0
 10
      -25.500000
 20
       57.000000
 30
        0.000000
 40
        1.000000
  0
CIRCLE
  8
0
 10
      -15.000000
 20
       54.000000
 30
        0.000000
 40
        1.000000
  0
CIRCLE
  8
0
 10
      -21.000000
 20
       54.000000
 30
        0.000000
 40
        1.000000
  0
CIRCLE
  8
0
 10
      -24.000000
 20
       54.000000
 30
        0.000000
 40
        1.000000
  0
CIRCLE
  8
0
 10
      -18.000000
 20
       54.000000
 30
        0.000000
 40
        1.000000
  0
CIRCLE
  8
0
 10
      -12.000000
 20
       54.000000
 30
        0.000000
 40
        1.000000
  0
CIRCLE
  8
0
 10
       -9.000000
 20
       54.000000
 30
        0.000000
 40
        1.000000
  0
CIRCLE
  8
0
 10
       15.000000
 20
       60.000000
 30
        0.000000
 40
        1.000000
  0
CIRCLE
  8
0
 10
       16.500000
 20
       57.000000
 30
        0.000000
 40
        1.000000
  0
CIRCLE
  8
0
 10
       10.500000
 20
       57.000000
 30
        0.000000
 40
        1.000000
  0
CIRCLE
  8
0
 10
       13.500000
 20
       57.000000
 30
        0.000000
 40
        1.000000
  0
CIRCLE
  8
0
 10
       12.000000
 20
       60.000000
 30
        0.000000
 40
        1.000000
  0
CIRCLE
  8
0
 10
        0.000000
 20
       60.000000
 30
        0.000000
 40
        1.000000
  0
CIRCLE
  8
0
 10
       -3.000000
 20
       60.000000
 30
        0.000000
 40
        1.000000
  0
CIRCLE
  8
0
 10
       -1.500000
 20
       57.000000
 30
        0.000000
 40
        1.000000
  0
CIRCLE
  8
0
 10
        6.000000
 20
       60.000000
 30
        0.000000
 40
        1.000000
  0
CIRCLE
  8
0
 10
        1.500000
 20
       57.000000
 30
        0.000000
 40
        1.000000
  0
CIRCLE
  8
0
 10
        4.500000
 20
       57.000000
 30
        0.000000
 40
        1.000000
  0
CIRCLE
  8
0
 10
        3.000000
 20
       60.000000
 30
        0.000000
 40
        1.000000
  0
CIRCLE
  8
0
 10
        7.500000
 20
       57.000000
 30
        0.000000
 40
        1.000000
  0
CIRCLE
  8
0
 10
        9.000000
 20
       60.000000
 30
        0.000000
 40
        1.000000
  0
CIRCLE
  8
0
 10
       15.000000
 20
       54.000000
 30
        0.000000
 40
        1.000000
  0
CIRCLE
  8
0
 10
       12.000000
 20
       54.000000
 30
        0.000000
 40
        1.000000
  0
CIRCLE
  8
0
 10
        0.000000
 20
       54.000000
 30
        0.000000
 40
        1.000000
  0
CIRCLE
  8
0
 10
       -3.000000
 20
       54.000000
 30
        0.000000
 40
        1.000000
  0
CIRCLE
  8
0
 10
        6.000000
 20
       54.000000
 30
        0.000000
 40
        1.000000
  0
CIRCLE
  8
0
 10
        3.000000
 20
       54.000000
 30
        0.000000
 40
        1.000000
  0
CIRCLE
  8
0
 10
        9.000000
 20
       54.000000
 30
        0.000000
 40
        1.000000
  0
CIRCLE
  8
0
 10
       40.500000
 20
       57.000000
 30
        0.000000
 40
        1.000000
  0
CIRCLE
  8
0
 10
       31.500000
 20
       57.000000
 30
        0.000000
 40
        1.000000
  0
CIRCLE
  8
0
 10
       33.000000
 20
       60.000000
 30
        0.000000
 40
        1.000000
  0
CIRCLE
  8
0
 10
       28.500000
 20
       57.000000
 30
        0.000000
 40
        1.000000
  0
CIRCLE
  8
0
 10
       27.000000
 20
       60.000000
 30
        0.000000
 40
        1.000000
  0
CIRCLE
  8
0
 10
       30.000000
 20
       60.000000
 30
        0.000000
 40
        1.000000
  0
CIRCLE
  8
0
 10
       22.500000
 20
       57.000000
 30
        0.000000
 40
        1.000000
  0
CIRCLE
  8
0
 10
       19.500000
 20
       57.000000
 30
        0.000000
 40
        1.000000
  0
CIRCLE
  8
0
 10
       21.000000
 20
       60.000000
 30
        0.000000
 40
        1.000000
  0
CIRCLE
  8
0
 10
       25.500000
 20
       57.000000
 30
        0.000000
 40
        1.000000
  0
CIRCLE
  8
0
 10
       24.000000
 20
       60.000000
 30
        0.000000
 40
        1.000000
  0
CIRCLE
  8
0
 10
       37.500000
 20
       57.000000
 30
        0.000000
 40
        1.000000
  0
CIRCLE
  8
0
 10
       39.000000
 20
       60.000000
 30
        0.000000
 40
        1.000000
  0
CIRCLE
  8
0
 10
       36.000000
 20
       60.000000
 30
        0.000000
 40
        1.000000
  0
CIRCLE
  8
0
 10
       34.500000
 20
       57.000000
 30
        0.000000
 40
        1.000000
  0
CIRCLE
  8
0
 10
       33.000000
 20
       54.000000
 30
        0.000000
 40
        1.000000
  0
CIRCLE
  8
0
 10
       27.000000
 20
       54.000000
 30
        0.000000
 40
        1.000000
  0
CIRCLE
  8
0
 10
       30.000000
 20
       54.000000
 30
        0.000000
 40
        1.000000
  0
CIRCLE
  8
0
 10
       21.000000
 20
       54.000000
 30
        0.000000
 40
        1.000000
  0
CIRCLE
  8
0
 10
       24.000000
 20
       54.000000
 30
        0.000000
 40
        1.000000
  0
CIRCLE
  8
0
 10
       39.000000
 20
       54.000000
 30
        0.000000
 40
        1.000000
  0
CIRCLE
  8
0
 10
       36.000000
 20
       54.000000
 30
        0.000000
 40
        1.000000
  0
CIRCLE
  8
0
 10
       50.000000
 20
       52.500000
 30
        0.000000
 40
        1.500000
  0
CIRCLE
  8
0
 10
       50.000000
 20
       52.500000
 30
        0.000000
 40
        1.200000
  0
CIRCLE
  8
0
 10
       42.000000
 20
       60.000000
 30
        0.000000
 40
        1.000000
  0
CIRCLE
  8
0
 10
       42.000000
 20
       54.000000
 30
        0.000000
 40
        1.000000
  0
LINE
  8
0
 10
       83.521981
 20
       50.000000
 30
        0.000000
 11
       82.997049
 21
       44.000000
 31
        0.000000
  0
LINE
  8
0
 10
       82.521981
 20
       43.102886
 30
        0.000000
 11
       82.521981
 21
       50.897114
 31
        0.000000
  0
LINE
  8
0
 10
       80.521981
 20
       42.000000
 30
        0.000000
 11
       80.521981
 21
       52.000000
 31
        0.000000
  0
LINE
  8
0
 10
       84.021981
 20
       41.500000
 30
        0.000000
 11
       84.021981
 21
       52.500000
 31
        0.000000
  0
LINE
  8
0
 10
       96.021981
 20
       42.250000
 30
        0.000000
 11
       96.021981
 21
       51.750000
 31
        0.000000
  0
LINE
  8
0
 10
       94.521981
 20
       50.500000
 30
        0.000000
 11
       94.521981
 21
       49.500000
 31
        0.000000
  0
LINE
  8
0
 10
       85.271981
 20
       49.500000
 30
        0.000000
 11
       94.521981
 21
       49.500000
 31
        0.000000
  0
LINE
  8
0
 10
       85.271981
 20
       48.500000
 30
        0.000000
 11
       94.521981
 21
       48.500000
 31
        0.000000
  0
LINE
  8
0
 10
       85.271981
 20
       42.500000
 30
        0.000000
 11
       94.521981
 21
       42.500000
 31
        0.000000
  0
LINE
  8
0
 10
       85.271981
 20
       43.500000
 30
        0.000000
 11
       94.521981
 21
       43.500000
 31
        0.000000
  0
LINE
  8
0
 10
       85.271981
 20
       44.500000
 30
        0.000000
 11
       94.521981
 21
       44.500000
 31
        0.000000
  0
LINE
  8
0
 10
       85.271981
 20
       46.500000
 30
        0.000000
 11
       94.521981
 21
       46.500000
 31
        0.000000
  0
LINE
  8
0
 10
       85.271981
 20
       45.500000
 30
        0.000000
 11
       94.521981
 21
       45.500000
 31
        0.000000
  0
LINE
  8
0
 10
       85.271981
 20
       47.500000
 30
        0.000000
 11
       94.521981
 21
       47.500000
 31
        0.000000
  0
LINE
  8
0
 10
       84.021981
 20
       41.500000
 30
        0.000000
 11
       94.521981
 21
       41.500000
 31
        0.000000
  0
LINE
  8
0
 10
       84.021981
 20
       27.500000
 30
        0.000000
 11
       94.521981
 21
       27.500000
 31
        0.000000
  0
LINE
  8
0
 10
       85.271981
 20
       24.500000
 30
        0.000000
 11
       94.521981
 21
       24.500000
 31
        0.000000
  0
LINE
  8
0
 10
       85.271981
 20
       25.500000
 30
        0.000000
 11
       94.521981
 21
       25.500000
 31
        0.000000
  0
LINE
  8
0
 10
       85.271981
 20
       23.500000
 30
        0.000000
 11
       94.521981
 21
       23.500000
 31
        0.000000
  0
LINE
  8
0
 10
       85.271981
 20
       26.500000
 30
        0.000000
 11
       94.521981
 21
       26.500000
 31
        0.000000
  0
LINE
  8
0
 10
       85.271981
 20
       22.500000
 30
        0.000000
 11
       94.521981
 21
       22.500000
 31
        0.000000
  0
LINE
  8
0
 10
       85.271981
 20
       17.500000
 30
        0.000000
 11
       94.521981
 21
       17.500000
 31
        0.000000
  0
LINE
  8
0
 10
       85.271981
 20
       18.500000
 30
        0.000000
 11
       94.521981
 21
       18.500000
 31
        0.000000
  0
LINE
  8
0
 10
       85.271981
 20
       19.500000
 30
        0.000000
 11
       94.521981
 21
       19.500000
 31
        0.000000
  0
LINE
  8
0
 10
       85.315622
 20
       20.500000
 30
        0.000000
 11
       94.521981
 21
       20.500000
 31
        0.000000
  0
LINE
  8
0
 10
       84.021981
 20
       16.500000
 30
        0.000000
 11
       94.521981
 21
       16.500000
 31
        0.000000
  0
ARC
  8
0
 10
       85.253372
 20
       21.415521
 30
        0.000000
 40
        0.500000
 50
      330.168785
 51
      429.321883
  0
LINE
  8
0
 10
       83.521981
 20
       25.000000
 30
        0.000000
 11
       83.364060
 21
       23.194950
 31
        0.000000
  0
LINE
  8
0
 10
       82.521981
 20
       24.214875
 30
        0.000000
 11
       82.521981
 21
       25.897114
 31
        0.000000
  0
LINE
  8
0
 10
       82.521981
 20
       25.000000
 30
        0.000000
 11
       84.021981
 21
       25.000000
 31
        0.000000
  0
LINE
  8
0
 10
       82.521981
 20
       25.897114
 30
        0.000000
 11
       82.000000
 21
       25.897114
 31
        0.000000
  0
LINE
  8
0
 10
       85.021981
 20
       22.054675
 30
        0.000000
 11
       85.021981
 21
       22.250000
 31
        0.000000
  0
ARC
  8
0
 10
       85.271981
 20
       24.250000
 30
        0.000000
 40
        0.250000
 50
       90.000000
 51
      180.000005
  0
LINE
  8
0
 10
       85.021981
 20
       23.750000
 30
        0.000000
 11
       85.021981
 21
       24.250000
 31
        0.000000
  0
ARC
  8
0
 10
       85.271981
 20
       23.750000
 30
        0.000000
 40
        0.250000
 50
      180.000005
 51
      270.000000
  0
ARC
  8
0
 10
       85.271981
 20
       22.250000
 30
        0.000000
 40
        0.250000
 50
       90.000000
 51
      180.000005
  0
ARC
  8
0
 10
       85.271981
 20
       26.250000
 30
        0.000000
 40
        0.250000
 50
       90.000000
 51
      180.000005
  0
ARC
  8
0
 10
       85.271981
 20
       25.750000
 30
        0.000000
 40
        0.250000
 50
      180.000005
 51
      270.000000
  0
LINE
  8
0
 10
       85.021981
 20
       25.750000
 30
        0.000000
 11
       85.021981
 21
       26.250000
 31
        0.000000
  0
LINE
  8
0
 10
       84.021981
 20
       22.641917
 30
        0.000000
 11
       84.021981
 21
       27.500000
 31
        0.000000
  0
LINE
  8
0
 10
       82.521981
 20
       44.000000
 30
        0.000000
 11
       84.021981
 21
       44.000000
 31
        0.000000
  0
LINE
  8
0
 10
       80.521981
 20
       42.000000
 30
        0.000000
 11
       80.021981
 21
       42.000000
 31
        0.000000
  0
LINE
  8
0
 10
       82.521981
 20
       43.102886
 30
        0.000000
 11
       80.521981
 21
       43.102886
 31
        0.000000
  0
LINE
  8
0
 10
       85.021981
 20
       42.750000
 30
        0.000000
 11
       85.021981
 21
       43.250000
 31
        0.000000
  0
ARC
  8
0
 10
       85.271981
 20
       43.250000
 30
        0.000000
 40
        0.250000
 50
       90.000000
 51
      180.000005
  0
ARC
  8
0
 10
       85.271981
 20
       42.750000
 30
        0.000000
 40
        0.250000
 50
      180.000005
 51
      270.000000
  0
LINE
  8
0
 10
       85.021981
 20
       48.750000
 30
        0.000000
 11
       85.021981
 21
       49.250000
 31
        0.000000
  0
ARC
  8
0
 10
       85.271981
 20
       49.250000
 30
        0.000000
 40
        0.250000
 50
       90.000000
 51
      180.000005
  0
ARC
  8
0
 10
       85.271981
 20
       46.750000
 30
        0.000000
 40
        0.250000
 50
      180.000005
 51
      270.000000
  0
LINE
  8
0
 10
       85.021981
 20
       44.750000
 30
        0.000000
 11
       85.021981
 21
       45.250000
 31
        0.000000
  0
ARC
  8
0
 10
       85.271981
 20
       45.250000
 30
        0.000000
 40
        0.250000
 50
       90.000000
 51
      180.000005
  0
ARC
  8
0
 10
       85.271981
 20
       44.750000
 30
        0.000000
 40
        0.250000
 50
      180.000005
 51
      270.000000
  0
LINE
  8
0
 10
       85.021981
 20
       46.750000
 30
        0.000000
 11
       85.021981
 21
       47.250000
 31
        0.000000
  0
ARC
  8
0
 10
       85.271981
 20
       47.250000
 30
        0.000000
 40
        0.250000
 50
       90.000000
 51
      180.000005
  0
ARC
  8
0
 10
       85.271981
 20
       48.750000
 30
        0.000000
 40
        0.250000
 50
      180.000005
 51
      270.000000
  0
CIRCLE
  8
0
 10
       75.000000
 20
       20.000000
 30
        0.000000
 40
        3.300000
  0
LINE
  8
0
 10
       77.000000
 20
       20.000000
 30
        0.000000
 11
       73.000000
 21
       20.000000
 31
        0.000000
  0
LINE
  8
0
 10
       75.000000
 20
       18.000000
 30
        0.000000
 11
       75.000000
 21
       22.000000
 31
        0.000000
  0
ARC
  8
0
 10
       81.500000
 20
       28.000000
 30
        0.000000
 40
        0.500000
 50
        0.000000
 51
       90.000000
  0
LINE
  8
0
 10
       85.021981
 20
       17.750000
 30
        0.000000
 11
       85.021981
 21
       18.250000
 31
        0.000000
  0
ARC
  8
0
 10
       85.271981
 20
       18.250000
 30
        0.000000
 40
        0.250000
 50
       90.000000
 51
      180.000005
  0
ARC
  8
0
 10
       85.271981
 20
       17.750000
 30
        0.000000
 40
        0.250000
 50
      180.000005
 51
      270.000000
  0
LINE
  8
0
 10
       85.021981
 20
       19.750000
 30
        0.000000
 11
       85.021981
 21
       19.943845
 31
        0.000000
  0
ARC
  8
0
 10
       85.271981
 20
       19.750000
 30
        0.000000
 40
        0.250000
 50
      180.000005
 51
      270.000000
  0
LINE
  8
0
 10
       84.021981
 20
       16.500000
 30
        0.000000
 11
       84.021981
 21
       17.805379
 31
        0.000000
  0
LINE
  8
0
 10
       81.500000
 20
       28.500000
 30
        0.000000
 11
       80.000000
 21
       28.500000
 31
        0.000000
  0
ARC
  8
0
 10
       87.554477
 20
       27.512259
 30
        0.000000
 40
        6.016540
 50
      202.601353
 51
      249.321888
  0
LINE
  8
0
 10
       94.521981
 20
       44.500000
 30
        0.000000
 11
       94.521981
 21
       43.500000
 31
        0.000000
  0
ARC
  8
0
 10
       95.521981
 20
       42.250000
 30
        0.000000
 40
        0.500000
 50
      270.000000
 51
      360.000000
  0
LINE
  8
0
 10
       95.521981
 20
       41.750000
 30
        0.000000
 11
       94.521981
 21
       41.750000
 31
        0.000000
  0
LINE
  8
0
 10
       94.521981
 20
       42.500000
 30
        0.000000
 11
       94.521981
 21
       41.500000
 31
        0.000000
  0
LINE
  8
0
 10
       94.521981
 20
       46.500000
 30
        0.000000
 11
       94.521981
 21
       45.500000
 31
        0.000000
  0
LINE
  8
0
 10
       94.521981
 20
       48.500000
 30
        0.000000
 11
       94.521981
 21
       47.500000
 31
        0.000000
  0
ARC
  8
0
 10
       95.521981
 20
       26.750000
 30
        0.000000
 40
        0.500000
 50
        0.000000
 51
       90.000000
  0
LINE
  8
0
 10
       94.521981
 20
       27.500000
 30
        0.000000
 11
       94.521981
 21
       26.500000
 31
        0.000000
  0
LINE
  8
0
 10
       94.521981
 20
       25.500000
 30
        0.000000
 11
       94.521981
 21
       24.500000
 31
        0.000000
  0
LINE
  8
0
 10
       95.521981
 20
       27.250000
 30
        0.000000
 11
       94.521981
 21
       27.250000
 31
        0.000000
  0
LINE
  8
0
 10
       94.521981
 20
       23.500000
 30
        0.000000
 11
       94.521981
 21
       22.500000
 31
        0.000000
  0
LINE
  8
0
 10
       94.521981
 20
       19.500000
 30
        0.000000
 11
       94.521981
 21
       18.500000
 31
        0.000000
  0
ARC
  8
0
 10
       95.521981
 20
       17.250000
 30
        0.000000
 40
        0.500000
 50
      270.000000
 51
      360.000000
  0
LINE
  8
0
 10
       95.521981
 20
       16.750000
 30
        0.000000
 11
       94.521981
 21
       16.750000
 31
        0.000000
  0
LINE
  8
0
 10
       94.521981
 20
       17.500000
 30
        0.000000
 11
       94.521981
 21
       16.500000
 31
        0.000000
  0
LINE
  8
0
 10
       94.521981
 20
       21.500000
 30
        0.000000
 11
       94.521981
 21
       20.500000
 31
        0.000000
  0
LINE
  8
0
 10
       96.021981
 20
       17.250000
 30
        0.000000
 11
       96.021981
 21
       26.750000
 31
        0.000000
  0
LINE
  8
0
 10
       85.746184
 20
       21.500000
 30
        0.000000
 11
       94.521981
 21
       21.500000
 31
        0.000000
  0
LINE
  8
0
 10
       85.271981
 20
       50.500000
 30
        0.000000
 11
       94.521981
 21
       50.500000
 31
        0.000000
  0
LINE
  8
0
 10
       85.271981
 20
       51.500000
 30
        0.000000
 11
       94.521981
 21
       51.500000
 31
        0.000000
  0
LINE
  8
0
 10
       84.021981
 20
       52.500000
 30
        0.000000
 11
       94.521981
 21
       52.500000
 31
        0.000000
  0
LINE
  8
0
 10
       82.521981
 20
       50.000000
 30
        0.000000
 11
       84.021981
 21
       50.000000
 31
        0.000000
  0
LINE
  8
0
 10
       80.521981
 20
       52.000000
 30
        0.000000
 11
       80.021981
 21
       52.000000
 31
        0.000000
  0
LINE
  8
0
 10
       82.521981
 20
       50.897114
 30
        0.000000
 11
       80.521981
 21
       50.897114
 31
        0.000000
  0
LINE
  8
0
 10
       85.021981
 20
       50.750000
 30
        0.000000
 11
       85.021981
 21
       51.250000
 31
        0.000000
  0
ARC
  8
0
 10
       85.271981
 20
       51.250000
 30
        0.000000
 40
        0.250000
 50
       90.000000
 51
      180.000005
  0
ARC
  8
0
 10
       85.271981
 20
       50.750000
 30
        0.000000
 40
        0.250000
 50
      180.000005
 51
      270.000000
  0
ARC
  8
0
 10
       95.521981
 20
       51.750000
 30
        0.000000
 40
        0.500000
 50
        0.000000
 51
       90.000000
  0
LINE
  8
0
 10
       94.521981
 20
       52.500000
 30
        0.000000
 11
       94.521981
 21
       51.500000
 31
        0.000000
  0
LINE
  8
0
 10
       95.521981
 20
       52.250000
 30
        0.000000
 11
       94.521981
 21
       52.250000
 31
        0.000000
  0
LINE
  8
0
 10
       80.000000
 20
      158.250925
 30
        0.000000
 11
       80.000000
 21
      103.250925
 31
        0.000000
  0
ARC
  8
0
 10
       85.253372
 20
      119.950925
 30
        0.000000
 40
        0.500000
 50
        0.000000
 51
       90.000000
  0
ARC
  8
0
 10
       85.253372
 20
      110.550925
 30
        0.000000
 40
        0.500000
 50
      270.000000
 51
      360.000000
  0
ARC
  8
0
 10
       75.000000
 20
      104.995643
 30
        0.000000
 40
        3.744889
 50
      207.768041
 51
      332.231964
  0
LINE
  8
0
 10
       81.500000
 20
      122.750925
 30
        0.000000
 11
       80.000000
 21
      122.750925
 31
        0.000000
  0
LINE
  8
0
 10
       81.500000
 20
      107.750925
 30
        0.000000
 11
       80.000000
 21
      107.750925
 31
        0.000000
  0
LINE
  8
0
 10
       85.253372
 20
      120.450925
 30
        0.000000
 11
       82.000000
 21
      120.450925
 31
        0.000000
  0
LINE
  8
0
 10
       85.253372
 20
      110.050925
 30
        0.000000
 11
       82.000000
 21
      110.050925
 31
        0.000000
  0
LINE
  8
0
 10
       82.000000
 20
      108.250925
 30
        0.000000
 11
       82.000000
 21
      122.250925
 31
        0.000000
  0
ARC
  8
0
 10
       81.500000
 20
      122.250925
 30
        0.000000
 40
        0.500000
 50
        0.000000
 51
       90.000000
  0
ARC
  8
0
 10
       81.500000
 20
      108.250925
 30
        0.000000
 40
        0.500000
 50
      270.000000
 51
      360.000000
  0
LINE
  8
0
 10
       85.753372
 20
      110.550925
 30
        0.000000
 11
       85.753372
 21
      119.950925
 31
        0.000000
  0
LINE
  8
0
 10
       85.250000
 20
      148.250925
 30
        0.000000
 11
       94.500000
 21
      148.250925
 31
        0.000000
  0
LINE
  8
0
 10
       85.250000
 20
      147.250925
 30
        0.000000
 11
       94.500000
 21
      147.250925
 31
        0.000000
  0
LINE
  8
0
 10
       85.250000
 20
      141.250925
 30
        0.000000
 11
       94.500000
 21
      141.250925
 31
        0.000000
  0
LINE
  8
0
 10
       85.250000
 20
      142.250925
 30
        0.000000
 11
       94.500000
 21
      142.250925
 31
        0.000000
  0
LINE
  8
0
 10
       85.250000
 20
      143.250925
 30
        0.000000
 11
       94.500000
 21
      143.250925
 31
        0.000000
  0
LINE
  8
0
 10
       85.250000
 20
      145.250925
 30
        0.000000
 11
       94.500000
 21
      145.250925
 31
        0.000000
  0
LINE
  8
0
 10
       85.250000
 20
      144.250925
 30
        0.000000
 11
       94.500000
 21
      144.250925
 31
        0.000000
  0
LINE
  8
0
 10
       85.250000
 20
      146.250925
 30
        0.000000
 11
       94.500000
 21
      146.250925
 31
        0.000000
  0
LINE
  8
0
 10
       84.000000
 20
      140.250925
 30
        0.000000
 11
       94.500000
 21
      140.250925
 31
        0.000000
  0
LINE
  8
0
 10
       85.250000
 20
      149.250925
 30
        0.000000
 11
       94.500000
 21
      149.250925
 31
        0.000000
  0
LINE
  8
0
 10
       85.250000
 20
      150.250925
 30
        0.000000
 11
       94.500000
 21
      150.250925
 31
        0.000000
  0
LINE
  8
0
 10
       84.000000
 20
      151.250925
 30
        0.000000
 11
       94.500000
 21
      151.250925
 31
        0.000000
  0
LINE
  8
0
 10
       84.000000
 20
      140.250925
 30
        0.000000
 11
       84.000000
 21
      151.250925
 31
        0.000000
  0
LINE
  8
0
 10
       82.500000
 20
      141.853811
 30
        0.000000
 11
       82.500000
 21
      149.648040
 31
        0.000000
  0
LINE
  8
0
 10
       80.500000
 20
      140.750925
 30
        0.000000
 11
       80.500000
 21
      150.750925
 31
        0.000000
  0
LINE
  8
0
 10
       82.500000
 20
      148.750925
 30
        0.000000
 11
       84.000000
 21
      148.750925
 31
        0.000000
  0
LINE
  8
0
 10
       82.500000
 20
      142.750925
 30
        0.000000
 11
       84.000000
 21
      142.750925
 31
        0.000000
  0
LINE
  8
0
 10
       83.500000
 20
      148.750925
 30
        0.000000
 11
       82.975068
 21
      142.750925
 31
        0.000000
  0
LINE
  8
0
 10
       80.500000
 20
      140.750925
 30
        0.000000
 11
       80.000000
 21
      140.750925
 31
        0.000000
  0
LINE
  8
0
 10
       82.500000
 20
      141.853811
 30
        0.000000
 11
       80.500000
 21
      141.853811
 31
        0.000000
  0
LINE
  8
0
 10
       85.000000
 20
      141.500925
 30
        0.000000
 11
       85.000000
 21
      142.000925
 31
        0.000000
  0
ARC
  8
0
 10
       85.250000
 20
      142.000925
 30
        0.000000
 40
        0.250000
 50
       90.000000
 51
      180.000005
  0
ARC
  8
0
 10
       85.250000
 20
      141.500925
 30
        0.000000
 40
        0.250000
 50
      180.000005
 51
      270.000000
  0
LINE
  8
0
 10
       85.000000
 20
      147.500925
 30
        0.000000
 11
       85.000000
 21
      148.000925
 31
        0.000000
  0
ARC
  8
0
 10
       85.250000
 20
      148.000925
 30
        0.000000
 40
        0.250000
 50
       90.000000
 51
      180.000005
  0
ARC
  8
0
 10
       85.250000
 20
      145.500925
 30
        0.000000
 40
        0.250000
 50
      180.000005
 51
      270.000000
  0
LINE
  8
0
 10
       85.000000
 20
      143.500925
 30
        0.000000
 11
       85.000000
 21
      144.000925
 31
        0.000000
  0
ARC
  8
0
 10
       85.250000
 20
      144.000925
 30
        0.000000
 40
        0.250000
 50
       90.000000
 51
      180.000005
  0
ARC
  8
0
 10
       85.250000
 20
      143.500925
 30
        0.000000
 40
        0.250000
 50
      180.000005
 51
      270.000000
  0
LINE
  8
0
 10
       85.000000
 20
      145.500925
 30
        0.000000
 11
       85.000000
 21
      146.000925
 31
        0.000000
  0
ARC
  8
0
 10
       85.250000
 20
      146.000925
 30
        0.000000
 40
        0.250000
 50
       90.000000
 51
      180.000005
  0
ARC
  8
0
 10
       85.250000
 20
      147.500925
 30
        0.000000
 40
        0.250000
 50
      180.000005
 51
      270.000000
  0
LINE
  8
0
 10
       80.500000
 20
      150.750925
 30
        0.000000
 11
       80.000000
 21
      150.750925
 31
        0.000000
  0
LINE
  8
0
 10
       82.500000
 20
      149.648040
 30
        0.000000
 11
       80.500000
 21
      149.648040
 31
        0.000000
  0
LINE
  8
0
 10
       85.000000
 20
      149.500925
 30
        0.000000
 11
       85.000000
 21
      150.000925
 31
        0.000000
  0
ARC
  8
0
 10
       85.250000
 20
      150.000925
 30
        0.000000
 40
        0.250000
 50
       90.000000
 51
      180.000005
  0
ARC
  8
0
 10
       85.250000
 20
      149.500925
 30
        0.000000
 40
        0.250000
 50
      180.000005
 51
      270.000000
  0
LINE
  8
0
 10
       96.000000
 20
      141.000925
 30
        0.000000
 11
       96.000000
 21
      150.500925
 31
        0.000000
  0
LINE
  8
0
 10
       94.500000
 20
      149.250925
 30
        0.000000
 11
       94.500000
 21
      148.250925
 31
        0.000000
  0
LINE
  8
0
 10
       94.500000
 20
      143.250925
 30
        0.000000
 11
       94.500000
 21
      142.250925
 31
        0.000000
  0
ARC
  8
0
 10
       95.500000
 20
      141.000925
 30
        0.000000
 40
        0.500000
 50
      270.000000
 51
      360.000000
  0
LINE
  8
0
 10
       95.500000
 20
      140.500925
 30
        0.000000
 11
       94.500000
 21
      140.500925
 31
        0.000000
  0
LINE
  8
0
 10
       94.500000
 20
      141.250925
 30
        0.000000
 11
       94.500000
 21
      140.250925
 31
        0.000000
  0
LINE
  8
0
 10
       94.500000
 20
      145.250925
 30
        0.000000
 11
       94.500000
 21
      144.250925
 31
        0.000000
  0
LINE
  8
0
 10
       94.500000
 20
      147.250925
 30
        0.000000
 11
       94.500000
 21
      146.250925
 31
        0.000000
  0
ARC
  8
0
 10
       95.500000
 20
      150.500925
 30
        0.000000
 40
        0.500000
 50
        0.000000
 51
       90.000000
  0
LINE
  8
0
 10
       94.500000
 20
      151.250925
 30
        0.000000
 11
       94.500000
 21
      150.250925
 31
        0.000000
  0
LINE
  8
0
 10
       95.500000
 20
      151.000925
 30
        0.000000
 11
       94.500000
 21
      151.000925
 31
        0.000000
  0
LINE
  8
0
 10
      134.409131
 20
       28.500000
 30
        0.000000
 11
      134.409131
 21
        7.500000
 31
        0.000000
  0
LINE
  8
0
 10
      136.709131
 20
       25.200000
 30
        0.000000
 11
      136.709131
 21
       10.800000
 31
        0.000000
  0
LINE
  8
0
 10
      136.409131
 20
       25.500000
 30
        0.000000
 11
      136.409131
 21
       10.500000
 31
        0.000000
  0
LINE
  8
0
 10
      149.409131
 20
       28.500000
 30
        0.000000
 11
      149.409131
 21
        7.500000
 31
        0.000000
  0
LINE
  8
0
 10
      147.109131
 20
       25.200000
 30
        0.000000
 11
      147.109131
 21
       10.800000
 31
        0.000000
  0
LINE
  8
0
 10
      147.409131
 20
       25.500000
 30
        0.000000
 11
      147.409131
 21
       10.500000
 31
        0.000000
  0
LINE
  8
0
 10
      130.909131
 20
        0.000000
 30
        0.000000
 11
      130.909131
 21
       63.500000
 31
        0.000000
  0
LINE
  8
0
 10
      129.909131
 20
        0.000000
 30
        0.000000
 11
      129.909131
 21
       63.500000
 31
        0.000000
  0
LINE
  8
0
 10
      183.909131
 20
        0.000000
 30
        0.000000
 11
      183.909131
 21
       63.500000
 31
        0.000000
  0
LINE
  8
0
 10
      184.909131
 20
        0.000000
 30
        0.000000
 11
      184.909131
 21
       63.500000
 31
        0.000000
  0
TEXT
  8
5
 10
      138.912873
 20
        4.229096
 30
        0.000000
 40
        1.125000
  1
ＰＵＬＳＥ　ＣＯＮＴＲＯＬ
 50
        0.000000
 41
        1.000000
 51
        0.000000
  7
BIGFONT
  0
TEXT
  8
5
 10
      141.904271
 20
        2.213617
 30
        0.000000
 40
        1.125000
  1
ＰＯＷＥＲ　ＳＵＰＰＬＹ
 50
        0.000000
 41
        1.000000
 51
        0.000000
  7
BIGFONT
  0
LINE
  8
0
 10
      182.409131
 20
        0.000000
 30
        0.000000
 11
      132.409131
 21
        0.000000
 31
        0.000000
  0
ARC
  8
0
 10
      132.409131
 20
        1.500000
 30
        0.000000
 40
        1.500000
 50
      180.000005
 51
      270.000000
  0
LINE
  8
0
 10
      129.909131
 20
        0.000000
 30
        0.000000
 11
      130.909131
 21
        0.000000
 31
        0.000000
  0
LINE
  8
0
 10
      136.709131
 20
       10.800000
 30
        0.000000
 11
      147.109131
 21
       10.800000
 31
        0.000000
  0
LINE
  8
0
 10
      136.409131
 20
       10.500000
 30
        0.000000
 11
      147.409131
 21
       10.500000
 31
        0.000000
  0
LINE
  8
0
 10
      134.409131
 20
        7.500000
 30
        0.000000
 11
      149.409131
 21
        7.500000
 31
        0.000000
  0
CIRCLE
  8
0
 10
      141.909131
 20
        9.533651
 30
        0.000000
 40
        0.542698
  0
CIRCLE
  8
0
 10
      141.909131
 20
        9.533651
 30
        0.000000
 40
        0.773800
  0
LINE
  8
0
 10
      132.409131
 20
        0.000000
 30
        0.000000
 11
      134.118561
 21
       -4.671811
 31
        0.000000
  0
LINE
  8
0
 10
      142.409131
 20
        0.000000
 30
        0.000000
 11
      140.699700
 21
       -4.671811
 31
        0.000000
  0
LINE
  8
0
 10
      140.230146
 20
       -5.000000
 30
        0.000000
 11
      134.588115
 21
       -5.000000
 31
        0.000000
  0
ARC
  8
0
 10
      140.230146
 20
       -4.500000
 30
        0.000000
 40
        0.500000
 50
      270.000000
 51
      339.902267
  0
ARC
  8
0
 10
      134.588115
 20
       -4.500000
 30
        0.000000
 40
        0.500000
 50
      200.097738
 51
      270.000000
  0
LINE
  8
0
 10
      174.588115
 20
       -5.000000
 30
        0.000000
 11
      180.230146
 21
       -5.000000
 31
        0.000000
  0
LINE
  8
0
 10
      172.409131
 20
        0.000000
 30
        0.000000
 11
      174.118561
 21
       -4.671811
 31
        0.000000
  0
ARC
  8
0
 10
      174.588115
 20
       -4.500000
 30
        0.000000
 40
        0.500000
 50
      200.097738
 51
      270.000000
  0
LINE
  8
0
 10
      182.409131
 20
        0.000000
 30
        0.000000
 11
      180.699700
 21
       -4.671811
 31
        0.000000
  0
ARC
  8
0
 10
      180.230146
 20
       -4.500000
 30
        0.000000
 40
        0.500000
 50
      270.000000
 51
      339.902267
  0
LINE
  8
0
 10
      183.909131
 20
        0.000000
 30
        0.000000
 11
      184.909131
 21
        0.000000
 31
        0.000000
  0
ARC
  8
0
 10
      182.409131
 20
        1.500000
 30
        0.000000
 40
        1.500000
 50
      270.000000
 51
      360.000000
  0
LINE
  8
0
 10
      182.409131
 20
       65.000000
 30
        0.000000
 11
      132.409131
 21
       65.000000
 31
        0.000000
  0
LINE
  8
0
 10
      130.909131
 20
       63.500000
 30
        0.000000
 11
      183.909131
 21
       63.500000
 31
        0.000000
  0
LINE
  8
0
 10
      131.409131
 20
       64.000000
 30
        0.000000
 11
      183.409131
 21
       64.000000
 31
        0.000000
  0
LINE
  8
0
 10
      131.409131
 20
       65.000000
 30
        0.000000
 11
      183.409131
 21
       65.000000
 31
        0.000000
  0
ARC
  8
0
 10
      131.653849
 20
       19.986368
 30
        0.000000
 40
        3.744889
 50
      117.768033
 51
      242.231967
  0
LINE
  8
0
 10
      136.709131
 20
       21.700000
 30
        0.000000
 11
      147.109131
 21
       21.700000
 31
        0.000000
  0
LINE
  8
0
 10
      136.709131
 20
       25.200000
 30
        0.000000
 11
      147.109131
 21
       25.200000
 31
        0.000000
  0
LINE
  8
0
 10
      136.409131
 20
       25.500000
 30
        0.000000
 11
      147.409131
 21
       25.500000
 31
        0.000000
  0
LINE
  8
0
 10
      134.409131
 20
       28.500000
 30
        0.000000
 11
      149.409131
 21
       28.500000
 31
        0.000000
  0
CIRCLE
  8
0
 10
      141.909131
 20
       42.000000
 30
        0.000000
 40
        3.500000
  0
CIRCLE
  8
0
 10
      141.909131
 20
       42.000000
 30
        0.000000
 40
        1.000000
  0
LINE
  8
0
 10
      142.925095
 20
       26.719039
 30
        0.000000
 11
      142.925095
 21
       26.211372
 31
        0.000000
  0
LINE
  8
0
 10
      140.893166
 20
       26.211372
 30
        0.000000
 11
      140.893166
 21
       26.719039
 31
        0.000000
  0
LINE
  8
0
 10
      142.925095
 20
       26.211372
 30
        0.000000
 11
      140.893166
 21
       26.211372
 31
        0.000000
  0
LINE
  8
0
 10
      140.893166
 20
       26.719039
 30
        0.000000
 11
      142.925095
 21
       26.719039
 31
        0.000000
  0
ARC
  8
0
 10
      131.409131
 20
       63.500000
 30
        0.000000
 40
        1.500000
 50
       90.000000
 51
      180.000005
  0
ARC
  8
0
 10
      131.409131
 20
       63.500000
 30
        0.000000
 40
        0.500000
 50
       90.000000
 51
      180.000005
  0
TEXT
  8
5
 10
      137.561411
 20
       50.336540
 30
        0.000000
 40
        1.875000
  1
ＰＯＷＥＲ
 50
        0.000000
 41
        1.000000
 51
        0.000000
  7
BIGFONT
  0
CIRCLE
  8
0
 10
      172.409131
 20
       47.000000
 30
        0.000000
 40
        5.250000
  0
CIRCLE
  8
0
 10
      172.409131
 20
       47.000000
 30
        0.000000
 40
        5.500000
  0
CIRCLE
  8
0
 10
      172.409131
 20
       47.000000
 30
        0.000000
 40
        4.000000
  0
CIRCLE
  8
0
 10
      172.409131
 20
       22.000000
 30
        0.000000
 40
        5.500000
  0
CIRCLE
  8
0
 10
      172.409131
 20
       22.000000
 30
        0.000000
 40
        5.250000
  0
TEXT
  8
5
 10
      168.035942
 20
       30.235791
 30
        0.000000
 40
        1.875000
  1
ＬＡＭＰ　２
 50
        0.000000
 41
        1.000000
 51
        0.000000
  7
BIGFONT
  0
CIRCLE
  8
0
 10
      172.409131
 20
       22.000000
 30
        0.000000
 40
        4.000000
  0
LINE
  8
0
 10
      168.739327
 20
       17.903350
 30
        0.000000
 11
      169.843904
 21
       18.930861
 31
        0.000000
  0
LINE
  8
0
 10
      168.058224
 20
       18.635537
 30
        0.000000
 11
      169.162800
 21
       19.663049
 31
        0.000000
  0
LINE
  8
0
 10
      168.058224
 20
       43.635537
 30
        0.000000
 11
      169.162800
 21
       44.663049
 31
        0.000000
  0
LINE
  8
0
 10
      168.739327
 20
       42.903350
 30
        0.000000
 11
      169.843904
 21
       43.930861
 31
        0.000000
  0
ARC
  8
0
 10
      183.164412
 20
       19.986368
 30
        0.000000
 40
        3.744889
 50
      297.768038
 51
      422.231962
  0
TEXT
  8
5
 10
      168.035942
 20
       55.235791
 30
        0.000000
 40
        1.875000
  1
ＬＡＭＰ　１
 50
        0.000000
 41
        1.000000
 51
        0.000000
  7
BIGFONT
  0
ARC
  8
0
 10
      183.409131
 20
       63.500000
 30
        0.000000
 40
        0.500000
 50
        0.000000
 51
       90.000000
  0
ARC
  8
0
 10
      183.409131
 20
       63.500000
 30
        0.000000
 40
        1.500000
 50
        0.000000
 51
       90.000000
  0
LINE
  8
0
 10
     -166.033527
 20
       50.534993
 30
        0.000000
 11
     -168.783507
 21
       50.534993
 31
        0.000000
  0
LINE
  8
0
 10
     -166.033527
 20
       54.034973
 30
        0.000000
 11
     -168.783507
 21
       54.034973
 31
        0.000000
  0
LINE
  8
0
 10
     -168.783507
 20
       54.034973
 30
        0.000000
 11
     -168.783507
 21
       50.534993
 31
        0.000000
  0
LINE
  8
0
 10
     -160.833527
 20
       49.584963
 30
        0.000000
 11
     -165.733527
 21
       49.584963
 31
        0.000000
  0
LINE
  8
7
 10
     -161.658527
 20
       50.584963
 30
        0.000000
 11
     -162.658527
 21
       50.584963
 31
        0.000000
  0
LINE
  8
0
 10
     -166.033527
 20
       49.884963
 30
        0.000000
 11
     -165.733527
 21
       49.584963
 31
        0.000000
  0
LINE
  8
7
 10
     -163.908537
 20
       50.584963
 30
        0.000000
 11
     -164.908537
 21
       50.584963
 31
        0.000000
  0
LINE
  8
7
 10
     -164.908537
 20
       50.584963
 30
        0.000000
 11
     -165.158527
 21
       49.584963
 31
        0.000000
  0
LINE
  8
7
 10
     -162.658527
 20
       50.584963
 30
        0.000000
 11
     -162.908517
 21
       49.584963
 31
        0.000000
  0
LINE
  8
7
 10
     -163.908537
 20
       50.584963
 30
        0.000000
 11
     -163.658527
 21
       49.584963
 31
        0.000000
  0
LINE
  8
0
 10
     -160.833527
 20
       49.584963
 30
        0.000000
 11
     -160.533527
 21
       49.884963
 31
        0.000000
  0
LINE
  8
0
 10
     -157.783527
 20
       50.534993
 30
        0.000000
 11
     -160.533527
 21
       50.534993
 31
        0.000000
  0
LINE
  8
7
 10
     -161.658527
 20
       50.584963
 30
        0.000000
 11
     -161.408537
 21
       49.584963
 31
        0.000000
  0
LINE
  8
0
 10
     -160.833527
 20
       54.984943
 30
        0.000000
 11
     -165.733527
 21
       54.984943
 31
        0.000000
  0
LINE
  8
7
 10
     -161.158537
 20
       53.984943
 30
        0.000000
 11
     -163.158537
 21
       53.984943
 31
        0.000000
  0
LINE
  8
7
 10
     -161.658527
 20
       52.984943
 30
        0.000000
 11
     -162.658527
 21
       52.984943
 31
        0.000000
  0
LINE
  8
7
 10
     -161.658527
 20
       53.484973
 30
        0.000000
 11
     -162.658527
 21
       53.484973
 31
        0.000000
  0
LINE
  8
7
 10
     -161.158537
 20
       52.484953
 30
        0.000000
 11
     -163.158537
 21
       52.484953
 31
        0.000000
  0
LINE
  8
0
 10
     -161.783517
 20
       55.984953
 30
        0.000000
 11
     -164.783517
 21
       55.984953
 31
        0.000000
  0
LINE
  8
7
 10
     -163.908537
 20
       52.984943
 30
        0.000000
 11
     -164.908537
 21
       52.984943
 31
        0.000000
  0
LINE
  8
7
 10
     -163.908537
 20
       53.484973
 30
        0.000000
 11
     -164.908537
 21
       53.484973
 31
        0.000000
  0
LINE
  8
7
 10
     -163.408527
 20
       53.984943
 30
        0.000000
 11
     -165.408527
 21
       53.984943
 31
        0.000000
  0
LINE
  8
7
 10
     -163.408527
 20
       52.484953
 30
        0.000000
 11
     -165.408527
 21
       52.484953
 31
        0.000000
  0
LINE
  8
7
 10
     -164.908537
 20
       53.484973
 30
        0.000000
 11
     -164.908537
 21
       52.984943
 31
        0.000000
  0
LINE
  8
7
 10
     -164.908537
 20
       53.484973
 30
        0.000000
 11
     -165.408527
 21
       53.984943
 31
        0.000000
  0
LINE
  8
7
 10
     -165.408527
 20
       53.984943
 30
        0.000000
 11
     -165.408527
 21
       52.484953
 31
        0.000000
  0
LINE
  8
7
 10
     -164.908537
 20
       52.984943
 30
        0.000000
 11
     -165.408527
 21
       52.484953
 31
        0.000000
  0
LINE
  8
7
 10
     -162.658527
 20
       53.484973
 30
        0.000000
 11
     -163.158537
 21
       53.984943
 31
        0.000000
  0
LINE
  8
7
 10
     -163.908537
 20
       53.484973
 30
        0.000000
 11
     -163.908537
 21
       52.984943
 31
        0.000000
  0
LINE
  8
7
 10
     -163.908537
 20
       53.484973
 30
        0.000000
 11
     -163.408527
 21
       53.984943
 31
        0.000000
  0
LINE
  8
7
 10
     -162.658527
 20
       53.484973
 30
        0.000000
 11
     -162.658527
 21
       52.984943
 31
        0.000000
  0
LINE
  8
7
 10
     -163.408527
 20
       53.984943
 30
        0.000000
 11
     -163.408527
 21
       52.484953
 31
        0.000000
  0
LINE
  8
7
 10
     -163.158537
 20
       53.984943
 30
        0.000000
 11
     -163.158537
 21
       52.484953
 31
        0.000000
  0
LINE
  8
7
 10
     -163.908537
 20
       52.984943
 30
        0.000000
 11
     -163.408527
 21
       52.484953
 31
        0.000000
  0
LINE
  8
7
 10
     -162.658527
 20
       52.984943
 30
        0.000000
 11
     -163.158537
 21
       52.484953
 31
        0.000000
  0
LINE
  8
0
 10
     -165.733527
 20
       54.984943
 30
        0.000000
 11
     -166.033527
 21
       54.684943
 31
        0.000000
  0
LINE
  8
0
 10
     -164.783517
 20
       55.984953
 30
        0.000000
 11
     -164.783517
 21
       54.984943
 31
        0.000000
  0
LINE
  8
7
 10
     -161.658527
 20
       53.484973
 30
        0.000000
 11
     -161.658527
 21
       52.984943
 31
        0.000000
  0
LINE
  8
7
 10
     -161.658527
 20
       53.484973
 30
        0.000000
 11
     -161.158537
 21
       53.984943
 31
        0.000000
  0
LINE
  8
7
 10
     -161.158537
 20
       53.984943
 30
        0.000000
 11
     -161.158537
 21
       52.484953
 31
        0.000000
  0
LINE
  8
7
 10
     -161.658527
 20
       52.984943
 30
        0.000000
 11
     -161.158537
 21
       52.484953
 31
        0.000000
  0
LINE
  8
0
 10
     -160.833527
 20
       54.984943
 30
        0.000000
 11
     -160.533527
 21
       54.684943
 31
        0.000000
  0
LINE
  8
0
 10
     -157.783527
 20
       54.034973
 30
        0.000000
 11
     -160.533527
 21
       54.034973
 31
        0.000000
  0
LINE
  8
0
 10
     -161.783517
 20
       55.984953
 30
        0.000000
 11
     -161.783517
 21
       54.984943
 31
        0.000000
  0
LINE
  8
0
 10
     -166.033527
 20
       54.684943
 30
        0.000000
 11
     -166.033527
 21
       49.884963
 31
        0.000000
  0
LINE
  8
0
 10
     -160.533527
 20
       54.684943
 30
        0.000000
 11
     -160.533527
 21
       49.884963
 31
        0.000000
  0
LINE
  8
0
 10
     -157.783527
 20
       54.034973
 30
        0.000000
 11
     -157.783527
 21
       50.534993
 31
        0.000000
  0
LINE
  8
0
 10
     -168.783507
 20
       39.034973
 30
        0.000000
 11
     -168.783507
 21
       35.534993
 31
        0.000000
  0
LINE
  8
0
 10
     -166.033527
 20
       39.684943
 30
        0.000000
 11
     -166.033527
 21
       34.884963
 31
        0.000000
  0
LINE
  8
0
 10
     -157.783527
 20
       39.034973
 30
        0.000000
 11
     -157.783527
 21
       35.534993
 31
        0.000000
  0
LINE
  8
0
 10
     -160.533527
 20
       39.684943
 30
        0.000000
 11
     -160.533527
 21
       34.884963
 31
        0.000000
  0
LINE
  8
0
 10
     -166.033527
 20
       35.534993
 30
        0.000000
 11
     -168.783507
 21
       35.534993
 31
        0.000000
  0
LINE
  8
7
 10
     -161.658527
 20
       35.584963
 30
        0.000000
 11
     -162.658527
 21
       35.584963
 31
        0.000000
  0
LINE
  8
0
 10
     -160.833527
 20
       34.584963
 30
        0.000000
 11
     -165.733527
 21
       34.584963
 31
        0.000000
  0
LINE
  8
7
 10
     -163.908537
 20
       35.584963
 30
        0.000000
 11
     -163.658527
 21
       34.584963
 31
        0.000000
  0
LINE
  8
7
 10
     -162.658527
 20
       35.584963
 30
        0.000000
 11
     -162.908517
 21
       34.584963
 31
        0.000000
  0
LINE
  8
7
 10
     -164.908537
 20
       35.584963
 30
        0.000000
 11
     -165.158527
 21
       34.584963
 31
        0.000000
  0
LINE
  8
7
 10
     -163.908537
 20
       35.584963
 30
        0.000000
 11
     -164.908537
 21
       35.584963
 31
        0.000000
  0
LINE
  8
0
 10
     -166.033527
 20
       34.884963
 30
        0.000000
 11
     -165.733527
 21
       34.584963
 31
        0.000000
  0
LINE
  8
7
 10
     -161.658527
 20
       35.584963
 30
        0.000000
 11
     -161.408537
 21
       34.584963
 31
        0.000000
  0
LINE
  8
0
 10
     -157.783527
 20
       35.534993
 30
        0.000000
 11
     -160.533527
 21
       35.534993
 31
        0.000000
  0
LINE
  8
0
 10
     -160.833527
 20
       34.584963
 30
        0.000000
 11
     -160.533527
 21
       34.884963
 31
        0.000000
  0
LINE
  8
0
 10
     -166.033527
 20
       39.034973
 30
        0.000000
 11
     -168.783507
 21
       39.034973
 31
        0.000000
  0
LINE
  8
0
 10
     -161.783517
 20
       40.984953
 30
        0.000000
 11
     -164.783517
 21
       40.984953
 31
        0.000000
  0
LINE
  8
7
 10
     -161.158537
 20
       37.484953
 30
        0.000000
 11
     -163.158537
 21
       37.484953
 31
        0.000000
  0
LINE
  8
7
 10
     -161.658527
 20
       38.484973
 30
        0.000000
 11
     -162.658527
 21
       38.484973
 31
        0.000000
  0
LINE
  8
7
 10
     -161.658527
 20
       37.984943
 30
        0.000000
 11
     -162.658527
 21
       37.984943
 31
        0.000000
  0
LINE
  8
7
 10
     -161.158537
 20
       38.984943
 30
        0.000000
 11
     -163.158537
 21
       38.984943
 31
        0.000000
  0
LINE
  8
0
 10
     -160.833527
 20
       39.984943
 30
        0.000000
 11
     -165.733527
 21
       39.984943
 31
        0.000000
  0
LINE
  8
0
 10
     -164.783517
 20
       40.984953
 30
        0.000000
 11
     -164.783517
 21
       39.984943
 31
        0.000000
  0
LINE
  8
0
 10
     -165.733527
 20
       39.984943
 30
        0.000000
 11
     -166.033527
 21
       39.684943
 31
        0.000000
  0
LINE
  8
7
 10
     -162.658527
 20
       37.984943
 30
        0.000000
 11
     -163.158537
 21
       37.484953
 31
        0.000000
  0
LINE
  8
7
 10
     -163.908537
 20
       37.984943
 30
        0.000000
 11
     -163.408527
 21
       37.484953
 31
        0.000000
  0
LINE
  8
7
 10
     -163.158537
 20
       38.984943
 30
        0.000000
 11
     -163.158537
 21
       37.484953
 31
        0.000000
  0
LINE
  8
7
 10
     -163.408527
 20
       38.984943
 30
        0.000000
 11
     -163.408527
 21
       37.484953
 31
        0.000000
  0
LINE
  8
7
 10
     -162.658527
 20
       38.484973
 30
        0.000000
 11
     -162.658527
 21
       37.984943
 31
        0.000000
  0
LINE
  8
7
 10
     -163.908537
 20
       38.484973
 30
        0.000000
 11
     -163.408527
 21
       38.984943
 31
        0.000000
  0
LINE
  8
7
 10
     -163.908537
 20
       38.484973
 30
        0.000000
 11
     -163.908537
 21
       37.984943
 31
        0.000000
  0
LINE
  8
7
 10
     -162.658527
 20
       38.484973
 30
        0.000000
 11
     -163.158537
 21
       38.984943
 31
        0.000000
  0
LINE
  8
7
 10
     -164.908537
 20
       37.984943
 30
        0.000000
 11
     -165.408527
 21
       37.484953
 31
        0.000000
  0
LINE
  8
7
 10
     -165.408527
 20
       38.984943
 30
        0.000000
 11
     -165.408527
 21
       37.484953
 31
        0.000000
  0
LINE
  8
7
 10
     -164.908537
 20
       38.484973
 30
        0.000000
 11
     -165.408527
 21
       38.984943
 31
        0.000000
  0
LINE
  8
7
 10
     -164.908537
 20
       38.484973
 30
        0.000000
 11
     -164.908537
 21
       37.984943
 31
        0.000000
  0
LINE
  8
7
 10
     -163.408527
 20
       37.484953
 30
        0.000000
 11
     -165.408527
 21
       37.484953
 31
        0.000000
  0
LINE
  8
7
 10
     -163.408527
 20
       38.984943
 30
        0.000000
 11
     -165.408527
 21
       38.984943
 31
        0.000000
  0
LINE
  8
7
 10
     -163.908537
 20
       38.484973
 30
        0.000000
 11
     -164.908537
 21
       38.484973
 31
        0.000000
  0
LINE
  8
7
 10
     -163.908537
 20
       37.984943
 30
        0.000000
 11
     -164.908537
 21
       37.984943
 31
        0.000000
  0
LINE
  8
0
 10
     -161.783517
 20
       40.984953
 30
        0.000000
 11
     -161.783517
 21
       39.984943
 31
        0.000000
  0
LINE
  8
0
 10
     -157.783527
 20
       39.034973
 30
        0.000000
 11
     -160.533527
 21
       39.034973
 31
        0.000000
  0
LINE
  8
0
 10
     -160.833527
 20
       39.984943
 30
        0.000000
 11
     -160.533527
 21
       39.684943
 31
        0.000000
  0
LINE
  8
7
 10
     -161.658527
 20
       37.984943
 30
        0.000000
 11
     -161.158537
 21
       37.484953
 31
        0.000000
  0
LINE
  8
7
 10
     -161.158537
 20
       38.984943
 30
        0.000000
 11
     -161.158537
 21
       37.484953
 31
        0.000000
  0
LINE
  8
7
 10
     -161.658527
 20
       38.484973
 30
        0.000000
 11
     -161.158537
 21
       38.984943
 31
        0.000000
  0
LINE
  8
7
 10
     -161.658527
 20
       38.484973
 30
        0.000000
 11
     -161.658527
 21
       37.984943
 31
        0.000000
  0
LINE
  8
0
 10
     -133.022286
 20
       49.711814
 30
        0.000000
 11
     -143.043676
 21
       49.711814
 31
        0.000000
  0
LINE
  8
0
 10
     -133.022286
 20
       55.111804
 30
        0.000000
 11
     -143.043676
 21
       55.111804
 31
        0.000000
  0
LINE
  8
0
 10
     -143.343676
 20
       50.011814
 30
        0.000000
 11
     -143.043676
 21
       49.711814
 31
        0.000000
  0
LINE
  8
0
 10
     -143.343676
 20
       50.915903
 30
        0.000000
 11
     -145.843676
 21
       50.915903
 31
        0.000000
  0
LINE
  8
0
 10
     -143.343676
 20
       53.872450
 30
        0.000000
 11
     -145.843676
 21
       53.872450
 31
        0.000000
  0
LINE
  8
0
 10
     -145.843676
 20
       53.872450
 30
        0.000000
 11
     -145.843676
 21
       50.915903
 31
        0.000000
  0
LINE
  8
0
 10
     -143.343676
 20
       54.811804
 30
        0.000000
 11
     -143.043676
 21
       55.111804
 31
        0.000000
  0
LINE
  8
0
 10
     -143.343676
 20
       54.811804
 30
        0.000000
 11
     -143.343676
 21
       50.011814
 31
        0.000000
  0
LINE
  8
0
 10
     -133.022286
 20
       49.711814
 30
        0.000000
 11
     -132.722286
 21
       50.011814
 31
        0.000000
  0
LINE
  8
0
 10
     -130.222286
 20
       53.872450
 30
        0.000000
 11
     -130.222286
 21
       50.915903
 31
        0.000000
  0
LINE
  8
0
 10
     -136.532971
 20
       56.111814
 30
        0.000000
 11
     -136.532971
 21
       55.111804
 31
        0.000000
  0
LINE
  8
0
 10
     -133.022286
 20
       55.111804
 30
        0.000000
 11
     -132.722286
 21
       54.811804
 31
        0.000000
  0
LINE
  8
0
 10
     -139.532971
 20
       56.111814
 30
        0.000000
 11
     -139.532971
 21
       55.111804
 31
        0.000000
  0
LINE
  8
0
 10
     -136.532971
 20
       56.111814
 30
        0.000000
 11
     -139.532971
 21
       56.111814
 31
        0.000000
  0
LINE
  8
7
 10
     -138.212445
 20
       54.111794
 30
        0.000000
 11
     -138.212445
 21
       52.611804
 31
        0.000000
  0
LINE
  8
7
 10
     -137.353527
 20
       53.111794
 30
        0.000000
 11
     -137.853517
 21
       52.611804
 31
        0.000000
  0
LINE
  8
7
 10
     -136.353527
 20
       53.111794
 30
        0.000000
 11
     -135.853517
 21
       52.611804
 31
        0.000000
  0
LINE
  8
7
 10
     -137.853517
 20
       54.111794
 30
        0.000000
 11
     -137.853517
 21
       52.611804
 31
        0.000000
  0
LINE
  8
7
 10
     -135.853517
 20
       54.111794
 30
        0.000000
 11
     -135.853517
 21
       52.611804
 31
        0.000000
  0
LINE
  8
7
 10
     -137.353527
 20
       50.711814
 30
        0.000000
 11
     -136.353527
 21
       50.711814
 31
        0.000000
  0
LINE
  8
7
 10
     -137.853517
 20
       52.611804
 30
        0.000000
 11
     -135.853517
 21
       52.611804
 31
        0.000000
  0
LINE
  8
7
 10
     -137.353527
 20
       53.611824
 30
        0.000000
 11
     -137.853517
 21
       54.111794
 31
        0.000000
  0
LINE
  8
7
 10
     -137.353527
 20
       53.611824
 30
        0.000000
 11
     -136.353527
 21
       53.611824
 31
        0.000000
  0
LINE
  8
7
 10
     -137.353527
 20
       53.111794
 30
        0.000000
 11
     -136.353527
 21
       53.111794
 31
        0.000000
  0
LINE
  8
7
 10
     -137.353527
 20
       53.611824
 30
        0.000000
 11
     -137.353527
 21
       53.111794
 31
        0.000000
  0
LINE
  8
7
 10
     -136.353527
 20
       53.611824
 30
        0.000000
 11
     -136.353527
 21
       53.111794
 31
        0.000000
  0
LINE
  8
7
 10
     -136.353527
 20
       53.611824
 30
        0.000000
 11
     -135.853517
 21
       54.111794
 31
        0.000000
  0
LINE
  8
7
 10
     -137.853517
 20
       54.111794
 30
        0.000000
 11
     -135.853517
 21
       54.111794
 31
        0.000000
  0
LINE
  8
7
 10
     -135.103517
 20
       50.711814
 30
        0.000000
 11
     -134.103517
 21
       50.711814
 31
        0.000000
  0
LINE
  8
7
 10
     -134.103517
 20
       53.111794
 30
        0.000000
 11
     -133.603527
 21
       52.611804
 31
        0.000000
  0
LINE
  8
7
 10
     -133.603527
 20
       54.111794
 30
        0.000000
 11
     -133.603527
 21
       52.611804
 31
        0.000000
  0
LINE
  8
7
 10
     -134.103517
 20
       53.611824
 30
        0.000000
 11
     -133.603527
 21
       54.111794
 31
        0.000000
  0
LINE
  8
7
 10
     -134.103517
 20
       53.611824
 30
        0.000000
 11
     -134.103517
 21
       53.111794
 31
        0.000000
  0
LINE
  8
7
 10
     -135.603527
 20
       52.611804
 30
        0.000000
 11
     -133.603527
 21
       52.611804
 31
        0.000000
  0
LINE
  8
7
 10
     -135.603527
 20
       54.111794
 30
        0.000000
 11
     -133.603527
 21
       54.111794
 31
        0.000000
  0
LINE
  8
7
 10
     -135.103517
 20
       53.611824
 30
        0.000000
 11
     -134.103517
 21
       53.611824
 31
        0.000000
  0
LINE
  8
7
 10
     -135.103517
 20
       53.111794
 30
        0.000000
 11
     -134.103517
 21
       53.111794
 31
        0.000000
  0
LINE
  8
7
 10
     -135.103517
 20
       53.111794
 30
        0.000000
 11
     -135.603527
 21
       52.611804
 31
        0.000000
  0
LINE
  8
7
 10
     -135.603527
 20
       54.111794
 30
        0.000000
 11
     -135.603527
 21
       52.611804
 31
        0.000000
  0
LINE
  8
7
 10
     -135.103517
 20
       53.611824
 30
        0.000000
 11
     -135.603527
 21
       54.111794
 31
        0.000000
  0
LINE
  8
7
 10
     -135.103517
 20
       53.611824
 30
        0.000000
 11
     -135.103517
 21
       53.111794
 31
        0.000000
  0
LINE
  8
7
 10
     -139.712435
 20
       53.111794
 30
        0.000000
 11
     -140.212445
 21
       52.611804
 31
        0.000000
  0
LINE
  8
7
 10
     -140.212445
 20
       54.111794
 30
        0.000000
 11
     -140.212445
 21
       52.611804
 31
        0.000000
  0
LINE
  8
7
 10
     -138.712435
 20
       50.711814
 30
        0.000000
 11
     -139.712435
 21
       50.711814
 31
        0.000000
  0
LINE
  8
7
 10
     -138.712435
 20
       53.611824
 30
        0.000000
 11
     -139.712435
 21
       53.611824
 31
        0.000000
  0
LINE
  8
7
 10
     -138.712435
 20
       53.111794
 30
        0.000000
 11
     -139.712435
 21
       53.111794
 31
        0.000000
  0
LINE
  8
7
 10
     -138.712435
 20
       53.611824
 30
        0.000000
 11
     -138.712435
 21
       53.111794
 31
        0.000000
  0
LINE
  8
7
 10
     -139.712435
 20
       53.611824
 30
        0.000000
 11
     -139.712435
 21
       53.111794
 31
        0.000000
  0
LINE
  8
7
 10
     -139.712435
 20
       53.611824
 30
        0.000000
 11
     -140.212445
 21
       54.111794
 31
        0.000000
  0
LINE
  8
7
 10
     -140.962445
 20
       50.711814
 30
        0.000000
 11
     -141.962445
 21
       50.711814
 31
        0.000000
  0
LINE
  8
7
 10
     -141.962445
 20
       53.111794
 30
        0.000000
 11
     -142.462435
 21
       52.611804
 31
        0.000000
  0
LINE
  8
7
 10
     -142.462435
 20
       54.111794
 30
        0.000000
 11
     -142.462435
 21
       52.611804
 31
        0.000000
  0
LINE
  8
7
 10
     -141.962445
 20
       53.611824
 30
        0.000000
 11
     -142.462435
 21
       54.111794
 31
        0.000000
  0
LINE
  8
7
 10
     -141.962445
 20
       53.611824
 30
        0.000000
 11
     -141.962445
 21
       53.111794
 31
        0.000000
  0
LINE
  8
7
 10
     -140.462435
 20
       52.611804
 30
        0.000000
 11
     -142.462435
 21
       52.611804
 31
        0.000000
  0
LINE
  8
7
 10
     -140.462435
 20
       54.111794
 30
        0.000000
 11
     -142.462435
 21
       54.111794
 31
        0.000000
  0
LINE
  8
7
 10
     -140.962445
 20
       53.611824
 30
        0.000000
 11
     -141.962445
 21
       53.611824
 31
        0.000000
  0
LINE
  8
7
 10
     -140.962445
 20
       53.111794
 30
        0.000000
 11
     -141.962445
 21
       53.111794
 31
        0.000000
  0
LINE
  8
7
 10
     -140.962445
 20
       53.111794
 30
        0.000000
 11
     -140.462435
 21
       52.611804
 31
        0.000000
  0
LINE
  8
7
 10
     -140.462435
 20
       54.111794
 30
        0.000000
 11
     -140.462435
 21
       52.611804
 31
        0.000000
  0
LINE
  8
7
 10
     -140.962445
 20
       53.611824
 30
        0.000000
 11
     -140.462435
 21
       54.111794
 31
        0.000000
  0
LINE
  8
7
 10
     -140.962445
 20
       53.611824
 30
        0.000000
 11
     -140.962445
 21
       53.111794
 31
        0.000000
  0
LINE
  8
7
 10
     -138.712435
 20
       53.111794
 30
        0.000000
 11
     -138.212445
 21
       52.611804
 31
        0.000000
  0
LINE
  8
7
 10
     -138.212445
 20
       52.611804
 30
        0.000000
 11
     -140.212445
 21
       52.611804
 31
        0.000000
  0
LINE
  8
7
 10
     -138.712435
 20
       53.611824
 30
        0.000000
 11
     -138.212445
 21
       54.111794
 31
        0.000000
  0
LINE
  8
7
 10
     -138.212445
 20
       54.111794
 30
        0.000000
 11
     -140.212445
 21
       54.111794
 31
        0.000000
  0
LINE
  8
0
 10
     -132.722286
 20
       53.872450
 30
        0.000000
 11
     -130.222286
 21
       53.872450
 31
        0.000000
  0
LINE
  8
0
 10
     -132.722286
 20
       50.915903
 30
        0.000000
 11
     -130.222286
 21
       50.915903
 31
        0.000000
  0
LINE
  8
7
 10
     -137.353527
 20
       50.711814
 30
        0.000000
 11
     -137.603517
 21
       49.711814
 31
        0.000000
  0
LINE
  8
7
 10
     -136.353527
 20
       50.711814
 30
        0.000000
 11
     -136.103537
 21
       49.711814
 31
        0.000000
  0
LINE
  8
7
 10
     -135.103517
 20
       50.711814
 30
        0.000000
 11
     -135.353527
 21
       49.711814
 31
        0.000000
  0
LINE
  8
7
 10
     -134.103517
 20
       50.711814
 30
        0.000000
 11
     -133.853527
 21
       49.711814
 31
        0.000000
  0
LINE
  8
7
 10
     -139.712435
 20
       50.711814
 30
        0.000000
 11
     -139.962425
 21
       49.711814
 31
        0.000000
  0
LINE
  8
7
 10
     -140.962445
 20
       50.711814
 30
        0.000000
 11
     -140.712435
 21
       49.711814
 31
        0.000000
  0
LINE
  8
7
 10
     -141.962445
 20
       50.711814
 30
        0.000000
 11
     -142.212435
 21
       49.711814
 31
        0.000000
  0
LINE
  8
7
 10
     -138.712435
 20
       50.711814
 30
        0.000000
 11
     -138.462445
 21
       49.711814
 31
        0.000000
  0
LINE
  8
0
 10
     -132.722286
 20
       54.811804
 30
        0.000000
 11
     -132.722286
 21
       50.011814
 31
        0.000000
  0
TEXT
  8
10
 10
      -74.810221
 20
      -47.249516
 30
        0.000000
 40
        6.000000
  1
４－Ｒｕｂｂｅｒ　ｌｅｇ（Ｍ３ｓｃｒｅｗ）
 50
        0.000000
 41
        1.000000
 51
        0.000000
  7
BIGFONT
  0
INSERT
  8
10
 62
  5
  2
BLK0001
 10
        0.000000
 20
        0.000000
  0
INSERT
  8
10
 62
  5
  2
BLK0002
 10
        0.000000
 20
        0.000000
  0
INSERT
  8
10
 62
  5
  2
BLK0003
 10
        0.000000
 20
        0.000000
  0
INSERT
  8
10
 62
  5
  2
BLK0004
 10
        0.000000
 20
        0.000000
  0
INSERT
  8
10
 62
  5
  2
BLK0005
 10
        0.000000
 20
        0.000000
  0
INSERT
  8
10
 62
  5
  2
BLK0006
 10
        0.000000
 20
        0.000000
  0
INSERT
  8
10
 62
  5
  2
BLK0007
 10
        0.000000
 20
        0.000000
  0
INSERT
  8
10
 62
  5
  2
BLK0008
 10
        0.000000
 20
        0.000000
  0
INSERT
  8
10
 62
  5
  2
BLK0009
 10
        0.000000
 20
        0.000000
  0
INSERT
  8
10
 62
  5
  2
BLK0010
 10
        0.000000
 20
        0.000000
  0
INSERT
  8
10
 62
  5
  2
BLK0011
 10
        0.000000
 20
        0.000000
  0
INSERT
  8
10
 62
  5
  2
BLK0012
 10
        0.000000
 20
        0.000000
  0
ENDSEC
  0
EOF
