  0
SECTION
  2
HEADER
  9
$ACADVER
  1
AC1006
  9
$INSBASE
 10
0.0
 20
0.0
 30
0.0
  9
$EXTMIN
 10
     -172.500031
 20
     -172.500031
  9
$EXTMAX
 10
      178.000000
 20
      170.000000
  9
$LIMMIN
 10
     -172.500031
 20
     -172.500031
  9
$LIMMAX
 10
      178.000000
 20
      170.000000
  9
$VIEWCTR
 10
        2.749985
 20
        2.749985
  9
$ORTHOMODE
 70
     0
  9
$ANGBASE
 50
0.0
  9
$ANGDIR
 70
     0
  9
$SPLINETYPE
 70
     6
  9
$SPLINESEGS
 70
     8
9
$DIMASZ
 40
        6.000000
9
$DIMEXE
 40
        1.500000
9
$DIMEXO
 40
        2.500000
9
$DIMTXT
 40
        5.000000
9
$DIMGAP
 40
        1.500000
9
$DIMTAD
 70
1
9
$DIMTIH
 70
0
9
$DIMTOH
 70
0
  0
ENDSEC
  0
SECTION
  2
TABLES
  0
TABLE
  2
LTYPE
 70
     5
  0
LTYPE
  2
CONTINUOUS
 70
    64
  3
SOLID LINE
 72
    65
 73
     0
 40
0.0
  0
LTYPE
  2
DASHED
 70
    64
  3
-- -- -- -- -- --
 72
    65
 73
     2
 40
  0.75  
 49
  0.50  
 49
 -0.25  
  0
LTYPE
  2
DOT
 70
    64
  3
....................
 72
    65
 73
     2
 40
  0.25  
 49
  0.02  
 49
 -0.23  
  0
LTYPE
  2
CENTER
 70
    64
  3
-- . -- . -- . -- .
 72
    65
 73
    4
 40
  2.00  
 49
  1.25  
 49
 -0.25  
 49
  0.25  
 49
 -0.25  
  0
LTYPE
  2
PHANTOM
 70
    64
  3
-- .. -- .. -- ..
 72
    65
 73
    6
 40
  2.50  
 49
  1.25  
 49
 -0.25  
 49
  0.25  
 49
 -0.25  
 49
  0.25  
 49
 -0.25  
  0
ENDTAB
  0
TABLE
  2
LAYER
 70
     1
  0
LAYER
  2
0
 70
    64
 62
     3
  6
CONTINUOUS
  0
ENDTAB
  0
TABLE
  2
STYLE
 70
     2
  0
STYLE
  2
STANDARD
 70
    64
 40
0.0
 41
1.0
 50
0.0
 71
     0
 42
5.0
  3
ROMANS
  4
BIGFONT
  0
STYLE
  2
BIGFONT
 70
    64
 40
0.0
 41
1.0
 50
0.0
 71
     0
 42
5.0
  3
ROMANS
  4
BIGFONT
  0
ENDTAB
  0
TABLE
  2
VIEW
 70
     0
  0
ENDTAB
  0
TABLE
  2
UCS
 70
     0
  0
ENDTAB
  0
TABLE
  2
DWGMGR
 70
     0
  0
ENDTAB
  0
ENDSEC
  0
SECTION
  2
BLOCKS
  0
BLOCK
  8
0
  2
BLK0001
 70
    64
 10
        0.000000
 20
        0.000000
  0
TEXT
  8
0
 62
  2
 10
       85.672401
 20
       -6.428594
 30
        0.000000
 40
        4.175000
  1
１３０
 50
       90.000000
 41
        1.000000
 51
        0.000000
  7
BIGFONT
  0
LINE
  8
0
 62
  2
 10
       67.173912
 20
      -65.000023
 30
        0.000000
 11
       87.846313
 21
      -65.000023
 31
        0.000000
  0
LINE
  8
0
 62
  2
 10
       67.173912
 20
       64.999977
 30
        0.000000
 11
       87.846313
 21
       64.999977
 31
        0.000000
  0
LINE
  8
0
 62
  2
 10
       85.816879
 20
      -59.000023
 30
        0.000000
 11
       86.759354
 21
      -65.000023
 31
        0.000000
  0
LINE
  8
0
 62
  2
 10
       86.759354
 20
      -65.000023
 30
        0.000000
 11
       87.701828
 21
      -59.000023
 31
        0.000000
  0
LINE
  8
0
 62
  2
 10
       87.701828
 20
       58.999977
 30
        0.000000
 11
       86.759354
 21
       64.999977
 31
        0.000000
  0
LINE
  8
0
 62
  2
 10
       86.759354
 20
       64.999977
 30
        0.000000
 11
       85.816879
 21
       58.999977
 31
        0.000000
  0
LINE
  8
0
 62
  2
 10
       86.759354
 20
      -65.000023
 30
        0.000000
 11
       86.759354
 21
       64.999977
 31
        0.000000
  0
ENDBLK
  0
BLOCK
  8
0
  2
BLK0002
 70
    64
 10
        0.000000
 20
        0.000000
  0
TEXT
  8
0
 62
  2
 10
       98.530571
 20
       -6.428594
 30
        0.000000
 40
        4.175000
  1
１４０
 50
       90.000000
 41
        1.000000
 51
        0.000000
  7
BIGFONT
  0
LINE
  8
0
 62
  2
 10
       67.173912
 20
      -70.000023
 30
        0.000000
 11
      100.704483
 21
      -70.000023
 31
        0.000000
  0
LINE
  8
0
 62
  2
 10
       67.173912
 20
       69.999977
 30
        0.000000
 11
      100.704483
 21
       69.999977
 31
        0.000000
  0
LINE
  8
0
 62
  2
 10
       98.675049
 20
      -64.000023
 30
        0.000000
 11
       99.617523
 21
      -70.000023
 31
        0.000000
  0
LINE
  8
0
 62
  2
 10
       99.617523
 20
      -70.000023
 30
        0.000000
 11
      100.559998
 21
      -64.000023
 31
        0.000000
  0
LINE
  8
0
 62
  2
 10
      100.559998
 20
       63.999977
 30
        0.000000
 11
       99.617523
 21
       69.999977
 31
        0.000000
  0
LINE
  8
0
 62
  2
 10
       99.617523
 20
       69.999977
 30
        0.000000
 11
       98.675049
 21
       63.999977
 31
        0.000000
  0
LINE
  8
0
 62
  2
 10
       99.617523
 20
      -70.000023
 30
        0.000000
 11
       99.617523
 21
       69.999977
 31
        0.000000
  0
ENDBLK
  0
BLOCK
  8
0
  2
BLK0003
 70
    64
 10
        0.000000
 20
        0.000000
  0
TEXT
  8
0
 62
  2
 10
      154.071426
 20
      104.055992
 30
        0.000000
 40
        4.175000
  1
４０
 50
        0.000000
 41
        1.000000
 51
        0.000000
  7
BIGFONT
  0
LINE
  8
0
 62
  2
 10
      178.000000
 20
       71.173897
 30
        0.000000
 11
      178.000000
 21
      104.055992
 31
        0.000000
  0
LINE
  8
0
 62
  2
 10
      138.000000
 20
       58.405956
 30
        0.000000
 11
      138.000000
 21
      104.055992
 31
        0.000000
  0
LINE
  8
0
 62
  2
 10
      172.000000
 20
      102.026558
 30
        0.000000
 11
      178.000000
 21
      102.969032
 31
        0.000000
  0
LINE
  8
0
 62
  2
 10
      178.000000
 20
      102.969032
 30
        0.000000
 11
      172.000000
 21
      103.911507
 31
        0.000000
  0
LINE
  8
0
 62
  2
 10
      144.000000
 20
      103.911507
 30
        0.000000
 11
      138.000000
 21
      102.969032
 31
        0.000000
  0
LINE
  8
0
 62
  2
 10
      138.000000
 20
      102.969032
 30
        0.000000
 11
      144.000000
 21
      102.026558
 31
        0.000000
  0
LINE
  8
0
 62
  2
 10
      178.000000
 20
      102.969032
 30
        0.000000
 11
      138.000000
 21
      102.969032
 31
        0.000000
  0
ENDBLK
  0
BLOCK
  8
0
  2
BLK0004
 70
    64
 10
        0.000000
 20
        0.000000
  0
TEXT
  8
0
 62
  2
 10
       -6.428571
 20
      104.055992
 30
        0.000000
 40
        4.175000
  1
１４０
 50
        0.000000
 41
        1.000000
 51
        0.000000
  7
BIGFONT
  0
LINE
  8
0
 62
  2
 10
       70.000000
 20
       67.173889
 30
        0.000000
 11
       70.000000
 21
      104.055992
 31
        0.000000
  0
LINE
  8
0
 62
  2
 10
      -70.000000
 20
       67.173882
 30
        0.000000
 11
      -70.000000
 21
      104.055992
 31
        0.000000
  0
LINE
  8
0
 62
  2
 10
       64.000000
 20
      102.026558
 30
        0.000000
 11
       70.000000
 21
      102.969032
 31
        0.000000
  0
LINE
  8
0
 62
  2
 10
       70.000000
 20
      102.969032
 30
        0.000000
 11
       64.000000
 21
      103.911507
 31
        0.000000
  0
LINE
  8
0
 62
  2
 10
      -64.000000
 20
      103.911507
 30
        0.000000
 11
      -70.000000
 21
      102.969032
 31
        0.000000
  0
LINE
  8
0
 62
  2
 10
      -70.000000
 20
      102.969032
 30
        0.000000
 11
      -64.000000
 21
      102.026558
 31
        0.000000
  0
LINE
  8
0
 62
  2
 10
       70.000000
 20
      102.969032
 30
        0.000000
 11
      -70.000000
 21
      102.969032
 31
        0.000000
  0
ENDBLK
  0
BLOCK
  8
0
  2
BLK0005
 70
    64
 10
        0.000000
 20
        0.000000
  0
TEXT
  8
0
 62
  2
 10
       -6.428571
 20
       89.563042
 30
        0.000000
 40
        4.175000
  1
１３０
 50
        0.000000
 41
        1.000000
 51
        0.000000
  7
BIGFONT
  0
LINE
  8
0
 62
  2
 10
       65.000000
 20
       67.173889
 30
        0.000000
 11
       65.000000
 21
       89.563042
 31
        0.000000
  0
LINE
  8
0
 62
  2
 10
      -65.000000
 20
       67.173882
 30
        0.000000
 11
      -65.000000
 21
       89.563042
 31
        0.000000
  0
LINE
  8
0
 62
  2
 10
       59.000000
 20
       87.533607
 30
        0.000000
 11
       65.000000
 21
       88.476082
 31
        0.000000
  0
LINE
  8
0
 62
  2
 10
       65.000000
 20
       88.476082
 30
        0.000000
 11
       59.000000
 21
       89.418556
 31
        0.000000
  0
LINE
  8
0
 62
  2
 10
      -59.000000
 20
       89.418556
 30
        0.000000
 11
      -65.000000
 21
       88.476082
 31
        0.000000
  0
LINE
  8
0
 62
  2
 10
      -65.000000
 20
       88.476082
 30
        0.000000
 11
      -59.000000
 21
       87.533607
 31
        0.000000
  0
LINE
  8
0
 62
  2
 10
       65.000000
 20
       88.476082
 30
        0.000000
 11
      -65.000000
 21
       88.476082
 31
        0.000000
  0
ENDBLK
  0
BLOCK
  8
0
  2
BLK0006
 70
    64
 10
        0.000000
 20
        0.000000
  0
TEXT
  8
0
 62
  2
 10
       98.530571
 20
     -140.178604
 30
        0.000000
 40
        4.175000
  1
３０００
 50
       90.000000
 41
        1.000000
 51
        0.000000
  7
BIGFONT
  0
LINE
  8
0
 62
  2
 10
        9.173913
 20
     -172.500031
 30
        0.000000
 11
      100.704483
 21
     -172.500031
 31
        0.000000
  0
LINE
  8
0
 62
  2
 10
      100.559998
 20
      -76.000023
 30
        0.000000
 11
       99.617523
 21
      -70.000023
 31
        0.000000
  0
LINE
  8
0
 62
  2
 10
       99.617523
 20
      -70.000023
 30
        0.000000
 11
       98.675049
 21
      -76.000023
 31
        0.000000
  0
LINE
  8
0
 62
  2
 10
       98.675049
 20
     -166.500031
 30
        0.000000
 11
       99.617523
 21
     -172.500031
 31
        0.000000
  0
LINE
  8
0
 62
  2
 10
       99.617523
 20
     -172.500031
 30
        0.000000
 11
      100.559998
 21
     -166.500031
 31
        0.000000
  0
LINE
  8
0
 62
  2
 10
       99.617523
 20
      -70.000023
 30
        0.000000
 11
       99.617523
 21
     -172.500031
 31
        0.000000
  0
ENDBLK
  0
ENDSEC
  0
SECTION
  2
ENTITIES
  0
LINE
  8
0
 10
        6.299988
 20
       64.095337
 30
        0.000000
 11
        6.299988
 21
       61.999981
 31
        0.000000
  0
LINE
  8
0
 10
       10.000000
 20
      -76.999504
 30
        0.000000
 11
      -10.000000
 21
      -76.999504
 31
        0.000000
  0
INSERT
  8
0
 62
  5
  2
BLK0001
 10
        0.000000
 20
        0.000000
  0
INSERT
  8
0
 62
  5
  2
BLK0002
 10
        0.000000
 20
        0.000000
  0
INSERT
  8
0
 62
  5
  2
BLK0003
 10
        0.000000
 20
        0.000000
  0
INSERT
  8
0
 62
  5
  2
BLK0004
 10
        0.000000
 20
        0.000000
  0
INSERT
  8
0
 62
  5
  2
BLK0005
 10
        0.000000
 20
        0.000000
  0
INSERT
  8
0
 62
  5
  2
BLK0006
 10
        0.000000
 20
        0.000000
  0
LINE
  8
0
 10
       -3.500000
 20
     -106.299980
 30
        0.000000
 11
       -3.500000
 21
     -130.000031
 31
        0.000000
  0
LINE
  8
0
 10
      178.000000
 20
       68.999985
 30
        0.000000
 11
      178.000000
 21
       60.999985
 31
        0.000000
  0
LINE
  8
0
 10
      178.000000
 20
      -68.999992
 30
        0.000000
 11
      178.000000
 21
      -60.999992
 31
        0.000000
  0
LINE
  8
0
 10
      138.000000
 20
      -58.780941
 30
        0.000000
 11
      138.000000
 21
       58.780933
 31
        0.000000
  0
LINE
  8
0
 10
      149.500000
 20
      -76.999466
 30
        0.000000
 11
      149.500000
 21
      -79.499466
 31
        0.000000
  0
LINE
  8
0
 10
      166.500000
 20
      -79.499466
 30
        0.000000
 11
      149.500000
 21
      -79.499466
 31
        0.000000
  0
LINE
  8
0
 10
      166.500000
 20
      -76.999466
 30
        0.000000
 11
      166.500000
 21
      -79.499466
 31
        0.000000
  0
ARC
  8
0
 10
      156.250000
 20
     -102.999954
 30
        0.000000
 40
        2.015564
 50
       29.744878
 51
      150.255110
  0
ARC
  8
0
 10
      156.250000
 20
     -100.999954
 30
        0.000000
 40
        2.015564
 50
      209.744900
 51
      330.255139
  0
ARC
  8
0
 10
      159.750000
 20
     -100.999954
 30
        0.000000
 40
        2.015564
 50
      209.744900
 51
      330.255139
  0
LINE
  8
0
 10
      154.500000
 20
      -79.499466
 30
        0.000000
 11
      154.500000
 21
     -101.999954
 31
        0.000000
  0
LINE
  8
0
 10
      161.500000
 20
      -79.499466
 30
        0.000000
 11
      161.500000
 21
     -101.999954
 31
        0.000000
  0
ARC
  8
0
 10
      159.750000
 20
     -105.299942
 30
        0.000000
 40
        2.015564
 50
      209.744900
 51
      330.255139
  0
ARC
  8
0
 10
      156.250000
 20
     -107.299942
 30
        0.000000
 40
        2.015564
 50
       29.744878
 51
      150.255110
  0
ARC
  8
0
 10
      159.750000
 20
     -107.299942
 30
        0.000000
 40
        2.015557
 50
       29.744502
 51
      150.255302
  0
LINE
  8
0
 10
      154.500000
 20
     -106.299942
 30
        0.000000
 11
      154.500000
 21
     -130.000000
 31
        0.000000
  0
LINE
  8
0
 10
      161.500000
 20
     -106.299942
 30
        0.000000
 11
      161.500000
 21
     -129.999985
 31
        0.000000
  0
LINE
  8
0
 10
      157.812012
 20
      -76.999466
 30
        0.000000
 11
      155.500000
 21
      -76.999466
 31
        0.000000
  0
LINE
  8
0
 10
      173.000000
 20
       60.999985
 30
        0.000000
 11
      178.000000
 21
       60.999985
 31
        0.000000
  0
LINE
  8
0
 10
      173.000000
 20
       68.999985
 30
        0.000000
 11
      178.000000
 21
       68.999985
 31
        0.000000
  0
LINE
  8
0
 10
      173.000000
 20
      -60.999992
 30
        0.000000
 11
      178.000000
 21
      -60.999992
 31
        0.000000
  0
LINE
  8
0
 10
      173.000000
 20
      -68.999992
 30
        0.000000
 11
      178.000000
 21
      -68.999992
 31
        0.000000
  0
LINE
  8
0
 10
      168.000000
 20
      -76.999535
 30
        0.000000
 11
      148.000000
 21
      -76.999535
 31
        0.000000
  0
ARC
  8
0
 10
      171.000061
 20
      -68.789040
 30
        0.000000
 40
        1.000000
 50
      180.000015
 51
      267.001690
  0
LINE
  8
0
 10
      170.000061
 20
      -68.789040
 30
        0.000000
 11
      170.000061
 21
      -60.000038
 31
        0.000000
  0
LINE
  8
0
 10
      173.000000
 20
       70.000000
 30
        0.000000
 11
      170.000000
 21
       69.947632
 31
        0.000000
  0
ARC
  8
0
 10
      171.000000
 20
       68.964935
 30
        0.000000
 40
        1.000000
 50
       91.000203
 51
      180.000015
  0
LINE
  8
0
 10
      170.000000
 20
       68.999985
 30
        0.000000
 11
      170.000000
 21
       60.000000
 31
        0.000000
  0
LINE
  8
0
 10
      173.000000
 20
      -70.000008
 30
        0.000000
 11
      170.000000
 21
      -69.947639
 31
        0.000000
  0
LINE
  8
0
 10
      173.000000
 20
      -70.000008
 30
        0.000000
 11
      173.000000
 21
       70.000000
 31
        0.000000
  0
LINE
  8
0
 10
      170.000000
 20
      -69.947639
 30
        0.000000
 11
      147.476654
 21
      -68.767235
 31
        0.000000
  0
ARC
  8
0
 10
      148.000000
 20
      -58.780941
 30
        0.000000
 40
       10.000000
 50
      180.000015
 51
      267.000078
  0
LINE
  8
0
 10
      170.000000
 20
       69.947632
 30
        0.000000
 11
      147.476654
 21
       68.767227
 31
        0.000000
  0
ARC
  8
0
 10
      148.000000
 20
       58.780933
 30
        0.000000
 40
        9.999998
 50
       92.999918
 51
      180.000015
  0
LINE
  8
0
 10
      170.000000
 20
       60.000000
 30
        0.000000
 11
      138.000000
 21
       58.322948
 31
        0.000000
  0
LINE
  8
0
 10
      170.000000
 20
      -60.000008
 30
        0.000000
 11
      138.000000
 21
      -58.322956
 31
        0.000000
  0
LINE
  8
0
 10
      148.000000
 20
      -76.999535
 30
        0.000000
 11
      148.000000
 21
      -68.794662
 31
        0.000000
  0
LINE
  8
0
 10
      168.000000
 20
      -76.999535
 30
        0.000000
 11
      168.000000
 21
      -69.842827
 31
        0.000000
  0
LINE
  8
0
 10
      174.500000
 20
      -60.999992
 30
        0.000000
 11
      174.500000
 21
       60.999985
 31
        0.000000
  0
LINE
  8
0
 10
       -3.700012
 20
       64.095337
 30
        0.000000
 11
       -3.700012
 21
       61.999985
 31
        0.000000
  0
LINE
  8
0
 10
       -6.299988
 20
       64.095337
 30
        0.000000
 11
       -6.299988
 21
       61.999985
 31
        0.000000
  0
ARC
  8
0
 10
       -5.000000
 20
       64.095337
 30
        0.000000
 40
        1.299988
 50
        0.000000
 51
      180.000015
  0
ARC
  8
0
 10
        5.000000
 20
       64.095337
 30
        0.000000
 40
        1.299988
 50
        0.000000
 51
      180.000015
  0
CIRCLE
  8
0
 10
       -5.000000
 20
       61.999985
 30
        0.000000
 40
        1.299988
  0
LINE
  8
0
 10
      -60.999969
 20
      166.500000
 30
        0.000000
 11
       61.000000
 21
      166.500000
 31
        0.000000
  0
ARC
  8
0
 10
      -63.525757
 20
      135.000000
 30
        0.000000
 40
        5.000016
 50
      182.999930
 51
      270.000000
  0
LINE
  8
0
 10
      -69.947601
 20
      162.000000
 30
        0.000000
 11
      -68.518890
 21
      134.738358
 31
        0.000000
  0
LINE
  8
0
 10
      -63.525757
 20
      130.000000
 30
        0.000000
 11
       63.525787
 21
      130.000000
 31
        0.000000
  0
ARC
  8
0
 10
       63.525787
 20
      135.000000
 30
        0.000000
 40
        5.000000
 50
      270.000000
 51
      356.999918
  0
LINE
  8
0
 10
       69.947662
 20
      162.000000
 30
        0.000000
 11
       68.518921
 21
      134.738419
 31
        0.000000
  0
LINE
  8
0
 10
       -3.700012
 20
      130.000000
 30
        0.000000
 11
       -3.700012
 21
      130.699997
 31
        0.000000
  0
LINE
  8
0
 10
       -6.299988
 20
      130.000000
 30
        0.000000
 11
       -6.299988
 21
      130.699997
 31
        0.000000
  0
ARC
  8
0
 10
       -5.000000
 20
      130.699997
 30
        0.000000
 40
        1.299988
 50
        0.000000
 51
      180.000015
  0
LINE
  8
0
 10
        3.700012
 20
      130.000000
 30
        0.000000
 11
        3.700012
 21
      130.699997
 31
        0.000000
  0
LINE
  8
0
 10
        6.299988
 20
      130.000000
 30
        0.000000
 11
        6.299988
 21
      130.699997
 31
        0.000000
  0
ARC
  8
0
 10
        5.000000
 20
      130.699997
 30
        0.000000
 40
        1.299988
 50
        0.000000
 51
      180.000015
  0
ARC
  8
0
 10
      -68.789001
 20
      163.000061
 30
        0.000000
 40
        0.999996
 50
      182.998372
 51
      270.000000
  0
LINE
  8
0
 10
      -68.789001
 20
      162.000061
 30
        0.000000
 11
      -60.000000
 21
      162.000061
 31
        0.000000
  0
LINE
  8
0
 10
      -68.999969
 20
      170.000000
 30
        0.000000
 11
      -60.999969
 21
      170.000000
 31
        0.000000
  0
LINE
  8
0
 10
      -69.999969
 20
      165.000000
 30
        0.000000
 11
      -69.947601
 21
      162.000000
 31
        0.000000
  0
LINE
  8
0
 10
      -59.999969
 20
      162.000000
 30
        0.000000
 11
      -58.322937
 21
      130.000000
 31
        0.000000
  0
LINE
  8
0
 10
       69.000000
 20
      170.000000
 30
        0.000000
 11
       61.000000
 21
      170.000000
 31
        0.000000
  0
LINE
  8
0
 10
       70.000031
 20
      165.000000
 30
        0.000000
 11
       69.947662
 21
      162.000000
 31
        0.000000
  0
ARC
  8
0
 10
       68.964966
 20
      163.000000
 30
        0.000000
 40
        1.000000
 50
      270.000000
 51
      358.999797
  0
LINE
  8
0
 10
       69.000000
 20
      162.000000
 30
        0.000000
 11
       60.000031
 21
      162.000000
 31
        0.000000
  0
LINE
  8
0
 10
      -69.999969
 20
      165.000000
 30
        0.000000
 11
       70.000031
 21
      165.000000
 31
        0.000000
  0
LINE
  8
0
 10
       60.000031
 20
      162.000000
 30
        0.000000
 11
       58.322998
 21
      130.000000
 31
        0.000000
  0
LINE
  8
0
 10
      -60.999969
 20
      165.000000
 30
        0.000000
 11
      -60.999969
 21
      170.000000
 31
        0.000000
  0
LINE
  8
0
 10
      -68.999969
 20
      165.000000
 30
        0.000000
 11
      -68.999969
 21
      170.000000
 31
        0.000000
  0
LINE
  8
0
 10
       61.000000
 20
      165.000000
 30
        0.000000
 11
       61.000000
 21
      170.000000
 31
        0.000000
  0
LINE
  8
0
 10
       69.000000
 20
      165.000000
 30
        0.000000
 11
       69.000000
 21
      170.000000
 31
        0.000000
  0
ARC
  8
0
 10
       57.000061
 20
      -42.000000
 30
        0.000000
 40
        3.000000
 50
      270.000000
 51
      360.000000
  0
LINE
  8
0
 10
       60.000061
 20
      -42.000000
 30
        0.000000
 11
       60.000061
 21
       42.000000
 31
        0.000000
  0
ARC
  8
0
 10
       57.000061
 20
       42.000000
 30
        0.000000
 40
        3.000000
 50
        0.000000
 51
       90.000000
  0
LINE
  8
0
 10
       57.000061
 20
       45.000000
 30
        0.000000
 11
      -56.999939
 21
       45.000000
 31
        0.000000
  0
ARC
  8
0
 10
      -56.999939
 20
       42.000000
 30
        0.000000
 40
        3.000000
 50
       90.000000
 51
      180.000015
  0
LINE
  8
0
 10
      -59.999939
 20
      -42.000000
 30
        0.000000
 11
      -59.999939
 21
       42.000000
 31
        0.000000
  0
ARC
  8
0
 10
      -56.999939
 20
      -42.000000
 30
        0.000000
 40
        3.000000
 50
      180.000015
 51
      270.000000
  0
LINE
  8
0
 10
       57.000061
 20
      -45.000000
 30
        0.000000
 11
      -56.999939
 21
      -45.000000
 31
        0.000000
  0
LINE
  8
0
 10
       59.707092
 20
       69.707085
 30
        0.000000
 11
       58.847046
 21
       68.846985
 31
        0.000000
  0
LINE
  8
0
 10
       69.707092
 20
       59.707081
 30
        0.000000
 11
       68.847076
 21
       58.846981
 31
        0.000000
  0
LINE
  8
0
 10
       69.707123
 20
      -59.707108
 30
        0.000000
 11
       68.846985
 21
      -58.847038
 31
        0.000000
  0
LINE
  8
0
 10
       59.707123
 20
      -69.707123
 30
        0.000000
 11
       58.846985
 21
      -68.847061
 31
        0.000000
  0
LINE
  8
0
 10
      -59.707123
 20
      -69.707100
 30
        0.000000
 11
      -58.847046
 21
      -68.846977
 31
        0.000000
  0
LINE
  8
0
 10
      -69.707153
 20
      -59.707115
 30
        0.000000
 11
      -68.847076
 21
      -58.846977
 31
        0.000000
  0
LINE
  8
0
 10
      -69.707092
 20
       59.707069
 30
        0.000000
 11
      -68.846985
 21
       58.847031
 31
        0.000000
  0
LINE
  8
0
 10
      -59.707092
 20
       69.707092
 30
        0.000000
 11
      -58.846985
 21
       68.847054
 31
        0.000000
  0
LINE
  8
0
 10
       60.000000
 20
       68.999969
 30
        0.000000
 11
       60.000000
 21
       64.999977
 31
        0.000000
  0
LINE
  8
0
 10
      -60.000000
 20
       68.999969
 30
        0.000000
 11
      -60.000000
 21
       64.999954
 31
        0.000000
  0
LINE
  8
0
 10
       60.000000
 20
      -69.000031
 30
        0.000000
 11
       60.000000
 21
      -65.000023
 31
        0.000000
  0
LINE
  8
0
 10
      -60.000000
 20
      -69.000031
 30
        0.000000
 11
      -60.000000
 21
      -65.000031
 31
        0.000000
  0
LINE
  8
0
 10
      -69.000000
 20
      -60.000034
 30
        0.000000
 11
      -65.000000
 21
      -60.000034
 31
        0.000000
  0
LINE
  8
0
 10
      -69.000000
 20
       59.999954
 30
        0.000000
 11
      -65.000000
 21
       59.999954
 31
        0.000000
  0
LINE
  8
0
 10
       69.000000
 20
       59.999977
 30
        0.000000
 11
       65.000000
 21
       59.999977
 31
        0.000000
  0
LINE
  8
0
 10
       69.000000
 20
      -60.000023
 30
        0.000000
 11
       65.000000
 21
      -60.000023
 31
        0.000000
  0
ARC
  8
0
 10
      -69.000000
 20
       58.999954
 30
        0.000000
 40
        1.000000
 50
       90.000000
 51
      180.000015
  0
ARC
  8
0
 10
      -59.000000
 20
       68.999969
 30
        0.000000
 40
        1.000000
 50
       90.000000
 51
      180.000015
  0
ARC
  8
0
 10
       59.000000
 20
       68.999977
 30
        0.000000
 40
        1.000000
 50
        0.000000
 51
       90.000000
  0
ARC
  8
0
 10
       69.000000
 20
       58.999977
 30
        0.000000
 40
        1.000000
 50
        0.000000
 51
       90.000000
  0
ARC
  8
0
 10
       69.000000
 20
      -59.000023
 30
        0.000000
 40
        1.000000
 50
      270.000000
 51
      360.000000
  0
ARC
  8
0
 10
       59.000000
 20
      -69.000023
 30
        0.000000
 40
        1.000000
 50
      270.000000
 51
      360.000000
  0
ARC
  8
0
 10
      -59.000000
 20
      -69.000031
 30
        0.000000
 40
        1.000000
 50
      180.000015
 51
      270.000000
  0
ARC
  8
0
 10
      -69.000000
 20
      -59.000034
 30
        0.000000
 40
        1.000000
 50
      180.000015
 51
      270.000000
  0
CIRCLE
  8
0
 10
        5.000000
 20
       61.999981
 30
        0.000000
 40
        1.299988
  0
LINE
  8
0
 10
       10.000000
 20
      -70.000023
 30
        0.000000
 11
       65.000000
 21
      -70.000023
 31
        0.000000
  0
LINE
  8
0
 10
      -65.000031
 20
      -70.000031
 30
        0.000000
 11
      -10.000000
 21
      -70.000031
 31
        0.000000
  0
ARC
  8
0
 10
        0.000031
 20
     -110.878578
 30
        0.000000
 40
       42.083920
 50
       76.253853
 51
      103.746135
  0
LINE
  8
0
 10
      -10.000000
 20
      -76.999519
 30
        0.000000
 11
      -10.000000
 21
      -70.000031
 31
        0.000000
  0
ARC
  8
0
 10
      -63.722931
 20
      -82.078453
 30
        0.000000
 40
       23.789793
 50
       93.077045
 51
      102.438331
  0
ARC
  8
0
 10
      -82.078491
 20
      -63.722950
 30
        0.000000
 40
       23.789824
 50
      347.561744
 51
      356.923037
  0
ARC
  8
0
 10
      -65.000000
 20
      -64.999931
 30
        0.000000
 40
        6.677002
 50
        0.000000
 51
       90.000000
  0
ARC
  8
0
 10
       82.078461
 20
      -63.722908
 30
        0.000000
 40
       23.789793
 50
      183.077083
 51
      192.438336
  0
ARC
  8
0
 10
       63.722961
 20
      -82.078476
 30
        0.000000
 40
       23.789816
 50
       77.561746
 51
       86.923025
  0
ARC
  8
0
 10
       64.999939
 20
      -64.999977
 30
        0.000000
 40
        6.677021
 50
       90.000000
 51
      180.000015
  0
ARC
  8
0
 10
       63.722931
 20
       82.078461
 30
        0.000000
 40
       23.789797
 50
      273.077060
 51
      282.438353
  0
ARC
  8
0
 10
       82.078491
 20
       63.722958
 30
        0.000000
 40
       23.789793
 50
      167.561715
 51
      176.923009
  0
ARC
  8
0
 10
       65.000000
 20
       64.999939
 30
        0.000000
 40
        6.677002
 50
      180.000015
 51
      270.000000
  0
ARC
  8
0
 10
      -82.078461
 20
       63.722900
 30
        0.000000
 40
       23.789793
 50
        3.077049
 51
       12.438314
  0
ARC
  8
0
 10
      -63.722961
 20
       82.078468
 30
        0.000000
 40
       23.789816
 50
      257.561768
 51
      266.923033
  0
ARC
  8
0
 10
      -64.999939
 20
       64.999969
 30
        0.000000
 40
        6.677017
 50
      270.000000
 51
      360.000000
  0
LINE
  8
0
 10
      -70.000000
 20
       64.999969
 30
        0.000000
 11
      -70.000000
 21
      -65.000031
 31
        0.000000
  0
ARC
  8
0
 10
      -65.000000
 20
       64.999969
 30
        0.000000
 40
        5.000000
 50
       90.000000
 51
      180.000015
  0
ARC
  8
0
 10
      -65.000000
 20
       64.999969
 30
        0.000000
 40
        5.000000
 50
      270.000000
 51
      360.000000
  0
CIRCLE
  8
0
 10
      -65.000000
 20
       64.999969
 30
        0.000000
 40
        2.299988
  0
LINE
  8
0
 10
      -65.000031
 20
       69.999969
 30
        0.000000
 11
       65.000000
 21
       69.999977
 31
        0.000000
  0
ARC
  8
0
 10
       65.000000
 20
       64.999977
 30
        0.000000
 40
        5.000000
 50
        0.000000
 51
       90.000000
  0
LINE
  8
0
 10
       70.000000
 20
       64.999977
 30
        0.000000
 11
       70.000000
 21
      -65.000023
 31
        0.000000
  0
ARC
  8
0
 10
       65.000000
 20
       64.999977
 30
        0.000000
 40
        5.000000
 50
      180.000015
 51
      270.000000
  0
CIRCLE
  8
0
 10
       65.000000
 20
       64.999977
 30
        0.000000
 40
        2.299988
  0
ARC
  8
0
 10
      -65.000000
 20
      -65.000031
 30
        0.000000
 40
        5.000000
 50
      180.000015
 51
      270.000000
  0
ARC
  8
0
 10
      -65.000000
 20
      -65.000031
 30
        0.000000
 40
        5.000000
 50
        0.000000
 51
       90.000000
  0
CIRCLE
  8
0
 10
      -65.000000
 20
      -65.000031
 30
        0.000000
 40
        2.300018
  0
ARC
  8
0
 10
       65.000000
 20
      -65.000023
 30
        0.000000
 40
        5.000000
 50
      270.000000
 51
      360.000000
  0
ARC
  8
0
 10
       65.000000
 20
      -65.000023
 30
        0.000000
 40
        5.000000
 50
       90.000000
 51
      180.000015
  0
CIRCLE
  8
0
 10
       65.000000
 20
      -65.000023
 30
        0.000000
 40
        2.299988
  0
LINE
  8
0
 10
        8.500000
 20
      -79.499504
 30
        0.000000
 11
       -8.500000
 21
      -79.499504
 31
        0.000000
  0
LINE
  8
0
 10
        8.500000
 20
      -76.999504
 30
        0.000000
 11
        8.500000
 21
      -79.499504
 31
        0.000000
  0
LINE
  8
0
 10
       10.000000
 20
      -70.000031
 30
        0.000000
 11
       10.000000
 21
      -76.999504
 31
        0.000000
  0
ARC
  8
0
 10
        1.750000
 20
     -100.999992
 30
        0.000000
 40
        2.015564
 50
      209.744900
 51
      330.255139
  0
LINE
  8
0
 10
        3.500000
 20
      -79.499504
 30
        0.000000
 11
        3.500000
 21
     -101.999992
 31
        0.000000
  0
ARC
  8
0
 10
        1.750000
 20
     -105.299980
 30
        0.000000
 40
        2.015564
 50
      209.744900
 51
      330.255139
  0
ARC
  8
0
 10
        1.750000
 20
     -107.299980
 30
        0.000000
 40
        2.015557
 50
       29.744502
 51
      150.255302
  0
LINE
  8
0
 10
        3.500000
 20
     -106.299980
 30
        0.000000
 11
        3.500000
 21
     -130.000031
 31
        0.000000
  0
LINE
  8
0
 10
       -8.500000
 20
      -76.999504
 30
        0.000000
 11
       -8.500000
 21
      -79.499504
 31
        0.000000
  0
ARC
  8
0
 10
       -1.750000
 20
     -102.999992
 30
        0.000000
 40
        2.015564
 50
       29.744878
 51
      150.255110
  0
ARC
  8
0
 10
       -1.750000
 20
     -100.999992
 30
        0.000000
 40
        2.015564
 50
      209.744900
 51
      330.255139
  0
LINE
  8
0
 10
       -3.500000
 20
      -79.499504
 30
        0.000000
 11
       -3.500000
 21
     -101.999992
 31
        0.000000
  0
ARC
  8
0
 10
       -1.750000
 20
     -107.299980
 30
        0.000000
 40
        2.015564
 50
       29.744878
 51
      150.255110
  0
LINE
  8
0
 10
       -7.000061
 20
     -172.500031
 30
        0.000000
 11
        7.000000
 21
     -172.500031
 31
        0.000000
  0
LINE
  8
0
 10
       -7.000061
 20
     -172.500031
 30
        0.000000
 11
       -7.000000
 21
     -167.500031
 31
        0.000000
  0
LINE
  8
0
 10
        7.000000
 20
     -172.500031
 30
        0.000000
 11
        7.000000
 21
     -167.500031
 31
        0.000000
  0
LINE
  8
0
 10
        7.349976
 20
     -167.500031
 30
        0.000000
 11
        7.349976
 21
     -160.100006
 31
        0.000000
  0
LINE
  8
0
 10
       -7.349976
 20
     -167.500031
 30
        0.000000
 11
       -7.349976
 21
     -160.100006
 31
        0.000000
  0
LINE
  8
0
 10
       -7.349976
 20
     -160.100006
 30
        0.000000
 11
        7.349976
 21
     -160.100006
 31
        0.000000
  0
LINE
  8
0
 10
       -7.349976
 20
     -167.500031
 30
        0.000000
 11
        7.349976
 21
     -167.500031
 31
        0.000000
  0
LINE
  8
0
 10
        7.000000
 20
     -160.100006
 30
        0.000000
 11
        7.000000
 21
     -159.300079
 31
        0.000000
  0
LINE
  8
0
 10
       -7.000000
 20
     -160.100006
 30
        0.000000
 11
       -7.000000
 21
     -159.300079
 31
        0.000000
  0
LINE
  8
0
 10
       -7.000000
 20
     -159.300079
 30
        0.000000
 11
        7.000000
 21
     -159.300079
 31
        0.000000
  0
LINE
  8
0
 10
        6.099976
 20
     -158.500031
 30
        0.000000
 11
        6.099976
 21
     -156.100006
 31
        0.000000
  0
LINE
  8
0
 10
       -6.099976
 20
     -158.500031
 30
        0.000000
 11
       -6.099976
 21
     -156.100006
 31
        0.000000
  0
LINE
  8
0
 10
       -6.099976
 20
     -158.500031
 30
        0.000000
 11
        6.099976
 21
     -158.500031
 31
        0.000000
  0
LINE
  8
0
 10
       -6.099976
 20
     -158.500031
 30
        0.000000
 11
       -7.000000
 21
     -159.300079
 31
        0.000000
  0
LINE
  8
0
 10
        6.099976
 20
     -158.500031
 30
        0.000000
 11
        7.000000
 21
     -159.300079
 31
        0.000000
  0
LINE
  8
0
 10
       -4.500000
 20
     -130.000031
 30
        0.000000
 11
       -6.150024
 21
     -142.500031
 31
        0.000000
  0
LINE
  8
0
 10
        4.500000
 20
     -130.000031
 30
        0.000000
 11
        6.150024
 21
     -142.500031
 31
        0.000000
  0
LINE
  8
0
 10
       -6.750000
 20
     -152.600006
 30
        0.000000
 11
       -6.099976
 21
     -156.100006
 31
        0.000000
  0
LINE
  8
0
 10
        6.099976
 20
     -156.100006
 30
        0.000000
 11
        6.750000
 21
     -152.600006
 31
        0.000000
  0
LINE
  8
0
 10
       -6.099976
 20
     -156.100006
 30
        0.000000
 11
        6.099976
 21
     -156.100006
 31
        0.000000
  0
LINE
  8
0
 10
       -6.750000
 20
     -142.500031
 30
        0.000000
 11
        6.750000
 21
     -142.500031
 31
        0.000000
  0
LINE
  8
0
 10
       -4.500000
 20
     -130.000031
 30
        0.000000
 11
        4.500000
 21
     -130.000031
 31
        0.000000
  0
LINE
  8
0
 10
       -6.750000
 20
     -152.600006
 30
        0.000000
 11
        6.750000
 21
     -152.600006
 31
        0.000000
  0
LINE
  8
0
 10
        6.750000
 20
     -152.600006
 30
        0.000000
 11
        6.750000
 21
     -142.500031
 31
        0.000000
  0
LINE
  8
0
 10
       -6.750000
 20
     -152.600006
 30
        0.000000
 11
       -6.750000
 21
     -142.500031
 31
        0.000000
  0
ARC
  8
0
 10
      -15.069885
 20
       26.907684
 30
        0.000000
 40
        1.498025
 50
      311.987744
 51
      410.855295
  0
ARC
  8
0
 10
      -16.118530
 20
       25.619415
 30
        0.000000
 40
        3.159105
 50
       50.855773
 51
       71.024551
  0
ARC
  8
0
 10
      -17.624146
 20
       21.240509
 30
        0.000000
 40
        7.789617
 50
       71.024995
 51
       76.826414
  0
ARC
  8
0
 10
      -23.868103
 20
      -12.345215
 30
        0.000000
 40
       41.944065
 50
       78.977924
 51
       81.374480
  0
ARC
  8
0
 10
      -10.388245
 20
       76.518372
 30
        0.000000
 40
       47.936111
 50
      259.498235
 51
      261.374543
  0
ARC
  8
0
 10
      -18.784912
 20
       31.221954
 30
        0.000000
 40
        1.867949
 50
      241.927766
 51
      259.498591
  0
ARC
  8
0
 10
      -19.503967
 20
       29.873749
 30
        0.000000
 40
        0.340010
 50
      128.659801
 51
      241.932956
  0
ARC
  8
0
 10
      -19.264282
 20
       29.574127
 30
        0.000000
 40
        0.723668
 50
       91.193682
 51
      128.662069
  0
ARC
  8
0
 10
      -19.061218
 20
       19.813934
 30
        0.000000
 40
       10.486039
 50
       80.321654
 51
       91.192329
  0
ARC
  8
0
 10
      -20.068542
 20
       13.907196
 30
        0.000000
 40
       16.478018
 50
       70.029618
 51
       80.321531
  0
LINE
  8
0
 10
      -14.440735
 20
       29.394379
 30
        0.000000
 11
      -13.841553
 21
       30.802490
 31
        0.000000
  0
ARC
  8
0
 10
      -18.271484
 20
       16.492462
 30
        0.000000
 40
       14.980026
 50
       72.799123
 51
       88.304684
  0
ARC
  8
0
 10
      -18.138489
 20
       20.984528
 30
        0.000000
 40
       10.486005
 50
       88.304581
 51
      101.482296
  0
ARC
  8
0
 10
      -19.033142
 20
       25.388580
 30
        0.000000
 40
        5.991995
 50
      101.482412
 51
      109.058021
  0
ARC
  8
0
 10
      -20.013306
 20
       28.225952
 30
        0.000000
 40
        2.990115
 50
      109.057392
 51
      126.253772
  0
ARC
  8
0
 10
      -21.001953
 20
       29.574127
 30
        0.000000
 40
        1.318277
 50
      126.254974
 51
      220.236616
  0
ARC
  8
0
 10
      -20.612488
 20
       29.903717
 30
        0.000000
 40
        1.828442
 50
      220.236097
 51
      244.472120
  0
ARC
  8
0
 10
      -18.559937
 20
       34.201477
 30
        0.000000
 40
        6.591228
 50
      244.471328
 51
      259.396821
  0
ARC
  8
0
 10
      -10.400757
 20
       77.785217
 30
        0.000000
 40
       50.932110
 50
      259.396575
 51
      261.633954
  0
ARC
  8
0
 10
      -25.221741
 20
      -22.994995
 30
        0.000000
 40
       50.932053
 50
       80.653281
 51
       81.633863
  0
ARC
  8
0
 10
      -17.466736
 20
       24.121429
 30
        0.000000
 40
        3.181705
 50
       68.081635
 51
       80.653499
  0
ARC
  8
0
 10
      -16.448059
 20
       26.653046
 30
        0.000000
 40
        0.452842
 50
      291.523215
 51
      428.078131
  0
ARC
  8
0
 10
      -16.867493
 20
       27.716644
 30
        0.000000
 40
        1.596128
 50
      266.250806
 51
      291.522723
  0
ARC
  8
0
 10
      -16.090332
 20
       39.577057
 30
        0.000000
 40
       13.482044
 50
      245.314173
 51
      266.251025
  0
LINE
  8
0
 10
      -21.721008
 20
       27.327118
 30
        0.000000
 11
      -22.500000
 21
       25.859100
 31
        0.000000
  0
ARC
  8
0
 10
      -12.697571
 20
       54.170166
 30
        0.000000
 40
       29.960041
 50
      250.902115
 51
      254.077688
  0
ARC
  8
0
 10
      -17.629028
 20
       36.883820
 30
        0.000000
 40
       11.984015
 50
      254.077524
 51
      277.791994
  0
ARC
  8
0
 10
      -16.747681
 20
       30.442993
 30
        0.000000
 40
        5.483155
 50
      277.792185
 51
      288.239615
  0
ARC
  8
0
 10
      -15.878784
 20
       27.806488
 30
        0.000000
 40
        2.707195
 50
      288.240107
 51
      311.987553
  0
LINE
  8
0
 10
      -13.092529
 20
       25.199982
 30
        0.000000
 11
      -10.995361
 21
       25.199982
 31
        0.000000
  0
LINE
  8
0
 10
      -10.995361
 20
       25.199982
 30
        0.000000
 11
      -10.995361
 21
       27.656708
 31
        0.000000
  0
LINE
  8
0
 10
      -10.995361
 20
       27.656708
 30
        0.000000
 11
       -6.980713
 21
       27.656708
 31
        0.000000
  0
LINE
  8
0
 10
       -6.980713
 20
       27.656708
 30
        0.000000
 11
       -6.980713
 21
       25.199982
 31
        0.000000
  0
LINE
  8
0
 10
       -6.980713
 20
       25.199982
 30
        0.000000
 11
       -4.883484
 21
       25.199982
 31
        0.000000
  0
LINE
  8
0
 10
       -4.883484
 20
       25.199982
 30
        0.000000
 11
       -4.883484
 21
       31.191986
 31
        0.000000
  0
LINE
  8
0
 10
       -4.883484
 20
       31.191986
 30
        0.000000
 11
       -6.980713
 21
       31.191986
 31
        0.000000
  0
LINE
  8
0
 10
       -6.980713
 20
       31.191986
 30
        0.000000
 11
       -6.980713
 21
       28.915009
 31
        0.000000
  0
LINE
  8
0
 10
       -6.980713
 20
       28.915009
 30
        0.000000
 11
      -10.995361
 21
       28.915009
 31
        0.000000
  0
LINE
  8
0
 10
      -10.995361
 20
       28.915009
 30
        0.000000
 11
      -10.995361
 21
       31.191986
 31
        0.000000
  0
LINE
  8
0
 10
      -10.995361
 20
       31.191986
 30
        0.000000
 11
      -13.092529
 21
       31.191986
 31
        0.000000
  0
LINE
  8
0
 10
      -13.092529
 20
       31.191986
 30
        0.000000
 11
      -13.092529
 21
       25.199982
 31
        0.000000
  0
LINE
  8
0
 10
       -4.673767
 20
       25.199982
 30
        0.000000
 11
       -3.085876
 21
       25.199982
 31
        0.000000
  0
LINE
  8
0
 10
       -3.085876
 20
       25.199982
 30
        0.000000
 11
       -2.247009
 21
       26.578156
 31
        0.000000
  0
LINE
  8
0
 10
       -2.247009
 20
       26.578156
 30
        0.000000
 11
        1.767639
 21
       26.578156
 31
        0.000000
  0
LINE
  8
0
 10
        1.767639
 20
       26.578156
 30
        0.000000
 11
        2.606567
 21
       25.199982
 31
        0.000000
  0
LINE
  8
0
 10
        2.606567
 20
       25.199982
 30
        0.000000
 11
        5.213013
 21
       25.199982
 31
        0.000000
  0
LINE
  8
0
 10
        5.213013
 20
       25.199982
 30
        0.000000
 11
        1.557922
 21
       31.191986
 31
        0.000000
  0
LINE
  8
0
 10
        1.557922
 20
       31.191986
 30
        0.000000
 11
       -1.018677
 21
       31.191986
 31
        0.000000
  0
LINE
  8
0
 10
       -1.018677
 20
       31.191986
 30
        0.000000
 11
       -4.673767
 21
       25.199982
 31
        0.000000
  0
LINE
  8
0
 10
       -0.239624
 20
       29.873749
 30
        0.000000
 11
       -1.468018
 21
       27.836456
 31
        0.000000
  0
LINE
  8
0
 10
       -1.468018
 20
       27.836456
 30
        0.000000
 11
        1.018677
 21
       27.836456
 31
        0.000000
  0
LINE
  8
0
 10
        1.018677
 20
       27.836456
 30
        0.000000
 11
       -0.239624
 21
       29.873749
 31
        0.000000
  0
ARC
  8
0
 10
       12.343567
 20
       29.439331
 30
        0.000000
 40
        1.348217
 50
      312.274393
 51
      410.282436
  0
ARC
  8
0
 10
       11.534668
 20
       28.465607
 30
        0.000000
 40
        2.614069
 50
       50.282126
 51
       73.997637
  0
ARC
  8
0
 10
        9.364441
 20
       20.898773
 30
        0.000000
 40
       10.486014
 50
       73.996975
 51
       86.725940
  0
ARC
  8
0
 10
        8.594360
 20
        7.438751
 30
        0.000000
 40
       23.968052
 50
       86.725715
 51
       97.676378
  0
LINE
  8
0
 10
        5.392822
 20
       31.191986
 30
        0.000000
 11
        5.392822
 21
       25.199982
 31
        0.000000
  0
LINE
  8
0
 10
        5.392822
 20
       25.199982
 30
        0.000000
 11
        7.489990
 21
       25.199982
 31
        0.000000
  0
LINE
  8
0
 10
        7.489990
 20
       25.199982
 30
        0.000000
 11
        7.489990
 21
       30.263214
 31
        0.000000
  0
ARC
  8
0
 10
        8.981079
 20
       21.399750
 30
        0.000000
 40
        8.988027
 50
       83.594476
 51
       99.549339
  0
ARC
  8
0
 10
        9.707031
 20
       27.866425
 30
        0.000000
 40
        2.480727
 50
       59.886180
 51
       83.595118
  0
ARC
  8
0
 10
       10.575928
 20
       29.364410
 30
        0.000000
 40
        0.749002
 50
      310.427620
 51
      419.886221
  0
ARC
  8
0
 10
        9.886841
 20
       30.173340
 30
        0.000000
 40
        1.811652
 50
      286.189875
 51
      310.426691
  0
ARC
  8
0
 10
        9.617188
 20
       31.102112
 30
        0.000000
 40
        2.778738
 50
      269.256226
 51
      286.188810
  0
ARC
  8
0
 10
        9.690063
 20
       36.711700
 30
        0.000000
 40
        8.388826
 50
      259.415590
 51
      269.255898
  0
LINE
  8
0
 10
        8.149170
 20
       28.465607
 30
        0.000000
 11
        7.699768
 21
       27.866425
 31
        0.000000
  0
LINE
  8
0
 10
        7.699768
 20
       27.866425
 30
        0.000000
 11
       10.845581
 21
       25.199982
 31
        0.000000
  0
LINE
  8
0
 10
       10.845581
 20
       25.199982
 30
        0.000000
 11
       13.991333
 21
       25.199982
 31
        0.000000
  0
LINE
  8
0
 10
       13.991333
 20
       25.199982
 30
        0.000000
 11
       11.175110
 21
       27.551849
 31
        0.000000
  0
ARC
  8
0
 10
       10.580322
 20
       31.976074
 30
        0.000000
 40
        4.464027
 50
      277.656866
 51
      297.321116
  0
ARC
  8
0
 10
       11.294922
 20
       30.592773
 30
        0.000000
 40
        2.907060
 50
      297.321471
 51
      312.274011
  0
ARC
  8
0
 10
       21.031982
 20
       29.409363
 30
        0.000000
 40
        1.468082
 50
      319.591466
 51
      421.231939
  0
ARC
  8
0
 10
       19.773621
 20
       27.117401
 30
        0.000000
 40
        4.082695
 50
       61.232171
 51
       77.455953
  0
ARC
  8
0
 10
       18.057556
 20
       19.404694
 30
        0.000000
 40
       11.984028
 50
       77.456090
 51
       86.863514
  0
ARC
  8
0
 10
       17.401855
 20
        7.438629
 30
        0.000000
 40
       23.968037
 50
       86.863370
 51
       97.674466
  0
LINE
  8
0
 10
       14.201050
 20
       31.191986
 30
        0.000000
 11
       14.201050
 21
       25.199982
 31
        0.000000
  0
LINE
  8
0
 10
       14.201050
 20
       25.199982
 30
        0.000000
 11
       16.298279
 21
       25.199982
 31
        0.000000
  0
LINE
  8
0
 10
       16.298279
 20
       25.199982
 30
        0.000000
 11
       16.298279
 21
       27.327118
 31
        0.000000
  0
ARC
  8
0
 10
       18.314575
 20
       39.140320
 30
        0.000000
 40
       11.984039
 50
      260.314033
 51
      274.223985
  0
ARC
  8
0
 10
       18.755920
 20
       33.164581
 30
        0.000000
 40
        5.991989
 50
      274.224586
 51
      285.168079
  0
ARC
  8
0
 10
       19.144470
 20
       31.731262
 30
        0.000000
 40
        4.506959
 50
      285.168188
 51
      299.476287
  0
ARC
  8
0
 10
       19.923462
 20
       30.353119
 30
        0.000000
 40
        2.923872
 50
      299.476096
 51
      319.592149
  0
ARC
  8
0
 10
       19.354187
 20
       29.319489
 30
        0.000000
 40
        0.778984
 50
      309.342002
 51
      418.782175
  0
ARC
  8
0
 10
       18.455383
 20
       27.836456
 30
        0.000000
 40
        2.513106
 50
       58.781485
 51
       85.450484
  0
ARC
  8
0
 10
       17.822998
 20
       19.888641
 30
        0.000000
 40
       10.486010
 50
       85.450648
 51
       98.361077
  0
LINE
  8
0
 10
       16.298279
 20
       30.263214
 30
        0.000000
 11
       16.298279
 21
       28.465607
 31
        0.000000
  0
ARC
  8
0
 10
       18.238831
 20
       36.626892
 30
        0.000000
 40
        8.388822
 50
      256.624857
 51
      271.564720
  0
ARC
  8
0
 10
       18.395508
 20
       30.892395
 30
        0.000000
 40
        2.652172
 50
      271.564009
 51
      287.649978
  0
ARC
  8
0
 10
       18.605225
 20
       30.233276
 30
        0.000000
 40
        1.960482
 50
      287.650033
 51
      309.340117
  0
LINE
  8
0
 10
      -31.686646
 20
       -0.000031
 30
        0.000000
 11
      -31.011658
 21
       -0.000031
 31
        0.000000
  0
LINE
  8
0
 10
      -31.011658
 20
       -0.000031
 30
        0.000000
 11
      -30.561646
 21
        1.349945
 31
        0.000000
  0
LINE
  8
0
 10
      -30.561646
 20
        1.349945
 30
        0.000000
 11
      -28.874146
 21
        1.349945
 31
        0.000000
  0
LINE
  8
0
 10
      -28.874146
 20
        1.349945
 30
        0.000000
 11
      -28.401672
 21
       -0.000031
 31
        0.000000
  0
LINE
  8
0
 10
      -28.401672
 20
       -0.000031
 30
        0.000000
 11
      -27.681702
 21
       -0.000031
 31
        0.000000
  0
LINE
  8
0
 10
      -27.681702
 20
       -0.000031
 30
        0.000000
 11
      -29.391663
 21
        4.499969
 31
        0.000000
  0
LINE
  8
0
 10
      -29.391663
 20
        4.499969
 30
        0.000000
 11
      -30.089172
 21
        4.499969
 31
        0.000000
  0
LINE
  8
0
 10
      -30.089172
 20
        4.499969
 30
        0.000000
 11
      -31.686646
 21
       -0.000031
 31
        0.000000
  0
LINE
  8
0
 10
      -29.753296
 20
        3.844269
 30
        0.000000
 11
      -30.404175
 21
        1.867462
 31
        0.000000
  0
LINE
  8
0
 10
      -30.404175
 20
        1.867462
 30
        0.000000
 11
      -29.054199
 21
        1.867462
 31
        0.000000
  0
LINE
  8
0
 10
      -29.054199
 20
        1.867462
 30
        0.000000
 11
      -29.753296
 21
        3.844269
 31
        0.000000
  0
LINE
  8
0
 10
      -27.141663
 20
       -0.000031
 30
        0.000000
 11
      -26.511658
 21
       -0.000031
 31
        0.000000
  0
LINE
  8
0
 10
      -26.511658
 20
       -0.000031
 30
        0.000000
 11
      -26.511658
 21
        3.505402
 31
        0.000000
  0
LINE
  8
0
 10
      -26.511658
 20
        3.505402
 30
        0.000000
 11
      -24.239197
 21
       -0.000031
 31
        0.000000
  0
LINE
  8
0
 10
      -24.239197
 20
       -0.000031
 30
        0.000000
 11
      -23.541687
 21
       -0.000031
 31
        0.000000
  0
LINE
  8
0
 10
      -23.541687
 20
       -0.000031
 30
        0.000000
 11
      -23.541687
 21
        4.499969
 31
        0.000000
  0
LINE
  8
0
 10
      -23.541687
 20
        4.499969
 30
        0.000000
 11
      -24.171692
 21
        4.499969
 31
        0.000000
  0
LINE
  8
0
 10
      -24.171692
 20
        4.499969
 30
        0.000000
 11
      -24.171692
 21
        0.994537
 31
        0.000000
  0
LINE
  8
0
 10
      -24.171692
 20
        0.994537
 30
        0.000000
 11
      -26.444153
 21
        4.499969
 31
        0.000000
  0
LINE
  8
0
 10
      -26.444153
 20
        4.499969
 30
        0.000000
 11
      -27.141663
 21
        4.499969
 31
        0.000000
  0
LINE
  8
0
 10
      -27.141663
 20
        4.499969
 30
        0.000000
 11
      -27.141663
 21
       -0.000031
 31
        0.000000
  0
LINE
  8
0
 10
      -22.956665
 20
        3.959991
 30
        0.000000
 11
      -21.516663
 21
        3.959991
 31
        0.000000
  0
LINE
  8
0
 10
      -21.516663
 20
        3.959991
 30
        0.000000
 11
      -21.516663
 21
       -0.000031
 31
        0.000000
  0
LINE
  8
0
 10
      -21.516663
 20
       -0.000031
 30
        0.000000
 11
      -20.864197
 21
       -0.000031
 31
        0.000000
  0
LINE
  8
0
 10
      -20.864197
 20
       -0.000031
 30
        0.000000
 11
      -20.864197
 21
        3.959991
 31
        0.000000
  0
LINE
  8
0
 10
      -20.864197
 20
        3.959991
 30
        0.000000
 11
      -19.424194
 21
        3.959991
 31
        0.000000
  0
LINE
  8
0
 10
      -19.424194
 20
        3.959991
 30
        0.000000
 11
      -19.424194
 21
        4.499969
 31
        0.000000
  0
LINE
  8
0
 10
      -19.424194
 20
        4.499969
 30
        0.000000
 11
      -22.956665
 21
        4.499969
 31
        0.000000
  0
LINE
  8
0
 10
      -22.956665
 20
        4.499969
 30
        0.000000
 11
      -22.956665
 21
        3.959991
 31
        0.000000
  0
LINE
  8
0
 10
      -18.839172
 20
       -0.000031
 30
        0.000000
 11
      -15.441650
 21
       -0.000031
 31
        0.000000
  0
LINE
  8
0
 10
      -15.441650
 20
       -0.000031
 30
        0.000000
 11
      -15.441650
 21
        0.584991
 31
        0.000000
  0
LINE
  8
0
 10
      -15.441650
 20
        0.584991
 30
        0.000000
 11
      -18.186646
 21
        0.584991
 31
        0.000000
  0
LINE
  8
0
 10
      -18.186646
 20
        0.584991
 30
        0.000000
 11
      -18.186646
 21
        2.069977
 31
        0.000000
  0
LINE
  8
0
 10
      -18.186646
 20
        2.069977
 30
        0.000000
 11
      -15.734192
 21
        2.069977
 31
        0.000000
  0
LINE
  8
0
 10
      -15.734192
 20
        2.069977
 30
        0.000000
 11
      -15.734192
 21
        2.609955
 31
        0.000000
  0
LINE
  8
0
 10
      -15.734192
 20
        2.609955
 30
        0.000000
 11
      -18.186646
 21
        2.609955
 31
        0.000000
  0
LINE
  8
0
 10
      -18.186646
 20
        2.609955
 30
        0.000000
 11
      -18.186646
 21
        3.937469
 31
        0.000000
  0
LINE
  8
0
 10
      -18.186646
 20
        3.937469
 30
        0.000000
 11
      -15.509155
 21
        3.937469
 31
        0.000000
  0
LINE
  8
0
 10
      -15.509155
 20
        3.937469
 30
        0.000000
 11
      -15.509155
 21
        4.499969
 31
        0.000000
  0
LINE
  8
0
 10
      -15.509155
 20
        4.499969
 30
        0.000000
 11
      -18.839172
 21
        4.499969
 31
        0.000000
  0
LINE
  8
0
 10
      -18.839172
 20
        4.499969
 30
        0.000000
 11
      -18.839172
 21
       -0.000031
 31
        0.000000
  0
LINE
  8
0
 10
      -14.564209
 20
       -0.000031
 30
        0.000000
 11
      -13.934204
 21
       -0.000031
 31
        0.000000
  0
LINE
  8
0
 10
      -13.934204
 20
       -0.000031
 30
        0.000000
 11
      -13.934204
 21
        3.505402
 31
        0.000000
  0
LINE
  8
0
 10
      -13.934204
 20
        3.505402
 30
        0.000000
 11
      -11.661682
 21
       -0.000031
 31
        0.000000
  0
LINE
  8
0
 10
      -11.661682
 20
       -0.000031
 30
        0.000000
 11
      -10.964172
 21
       -0.000031
 31
        0.000000
  0
LINE
  8
0
 10
      -10.964172
 20
       -0.000031
 30
        0.000000
 11
      -10.964172
 21
        4.499969
 31
        0.000000
  0
LINE
  8
0
 10
      -10.964172
 20
        4.499969
 30
        0.000000
 11
      -11.594177
 21
        4.499969
 31
        0.000000
  0
LINE
  8
0
 10
      -11.594177
 20
        4.499969
 30
        0.000000
 11
      -11.594177
 21
        0.994537
 31
        0.000000
  0
LINE
  8
0
 10
      -11.594177
 20
        0.994537
 30
        0.000000
 11
      -13.866699
 21
        4.499969
 31
        0.000000
  0
LINE
  8
0
 10
      -13.866699
 20
        4.499969
 30
        0.000000
 11
      -14.564209
 21
        4.499969
 31
        0.000000
  0
LINE
  8
0
 10
      -14.564209
 20
        4.499969
 30
        0.000000
 11
      -14.564209
 21
       -0.000031
 31
        0.000000
  0
LINE
  8
0
 10
       -9.929199
 20
       -0.000031
 30
        0.000000
 11
       -9.299194
 21
       -0.000031
 31
        0.000000
  0
LINE
  8
0
 10
       -9.299194
 20
       -0.000031
 30
        0.000000
 11
       -9.299194
 21
        3.505402
 31
        0.000000
  0
LINE
  8
0
 10
       -9.299194
 20
        3.505402
 30
        0.000000
 11
       -7.026672
 21
       -0.000031
 31
        0.000000
  0
LINE
  8
0
 10
       -7.026672
 20
       -0.000031
 30
        0.000000
 11
       -6.329163
 21
       -0.000031
 31
        0.000000
  0
LINE
  8
0
 10
       -6.329163
 20
       -0.000031
 30
        0.000000
 11
       -6.329163
 21
        4.499969
 31
        0.000000
  0
LINE
  8
0
 10
       -6.329163
 20
        4.499969
 30
        0.000000
 11
       -6.959167
 21
        4.499969
 31
        0.000000
  0
LINE
  8
0
 10
       -6.959167
 20
        4.499969
 30
        0.000000
 11
       -6.959167
 21
        0.994537
 31
        0.000000
  0
LINE
  8
0
 10
       -6.959167
 20
        0.994537
 30
        0.000000
 11
       -9.231689
 21
        4.499969
 31
        0.000000
  0
LINE
  8
0
 10
       -9.231689
 20
        4.499969
 30
        0.000000
 11
       -9.929199
 21
        4.499969
 31
        0.000000
  0
LINE
  8
0
 10
       -9.929199
 20
        4.499969
 30
        0.000000
 11
       -9.929199
 21
       -0.000031
 31
        0.000000
  0
LINE
  8
0
 10
       -5.789185
 20
       -0.000031
 30
        0.000000
 11
       -5.114197
 21
       -0.000031
 31
        0.000000
  0
LINE
  8
0
 10
       -5.114197
 20
       -0.000031
 30
        0.000000
 11
       -4.664185
 21
        1.349945
 31
        0.000000
  0
LINE
  8
0
 10
       -4.664185
 20
        1.349945
 30
        0.000000
 11
       -2.976685
 21
        1.349945
 31
        0.000000
  0
LINE
  8
0
 10
       -2.976685
 20
        1.349945
 30
        0.000000
 11
       -2.504150
 21
       -0.000031
 31
        0.000000
  0
LINE
  8
0
 10
       -2.504150
 20
       -0.000031
 30
        0.000000
 11
       -1.784180
 21
       -0.000031
 31
        0.000000
  0
LINE
  8
0
 10
       -1.784180
 20
       -0.000031
 30
        0.000000
 11
       -3.494141
 21
        4.499969
 31
        0.000000
  0
LINE
  8
0
 10
       -3.494141
 20
        4.499969
 30
        0.000000
 11
       -4.191650
 21
        4.499969
 31
        0.000000
  0
LINE
  8
0
 10
       -4.191650
 20
        4.499969
 30
        0.000000
 11
       -5.789185
 21
       -0.000031
 31
        0.000000
  0
LINE
  8
0
 10
       -3.855774
 20
        3.844269
 30
        0.000000
 11
       -4.506653
 21
        1.867462
 31
        0.000000
  0
LINE
  8
0
 10
       -4.506653
 20
        1.867462
 30
        0.000000
 11
       -3.156677
 21
        1.867462
 31
        0.000000
  0
LINE
  8
0
 10
       -3.156677
 20
        1.867462
 30
        0.000000
 11
       -3.855774
 21
        3.844269
 31
        0.000000
  0
LINE
  8
0
 10
        3.885864
 20
       -0.000031
 30
        0.000000
 11
        5.595825
 21
       -0.000031
 31
        0.000000
  0
ARC
  8
0
 10
        5.595825
 20
        2.047455
 30
        0.000000
 40
        2.047485
 50
      270.000000
 51
      299.130105
  0
ARC
  8
0
 10
        5.716309
 20
        1.831268
 30
        0.000000
 40
        1.799993
 50
      299.129914
 51
      344.634380
  0
ARC
  8
0
 10
        4.110840
 20
        2.272491
 30
        0.000000
 40
        3.464985
 50
      344.634243
 51
      374.776233
  0
ARC
  8
0
 10
        5.786011
 20
        2.714325
 30
        0.000000
 40
        1.732475
 50
       14.777467
 51
       49.808561
  0
ARC
  8
0
 10
        5.640808
 20
        2.542450
 30
        0.000000
 40
        1.957475
 50
       49.808541
 51
       90.000000
  0
LINE
  8
0
 10
        5.640808
 20
        4.499969
 30
        0.000000
 11
        3.885864
 21
        4.499969
 31
        0.000000
  0
LINE
  8
0
 10
        3.885864
 20
        4.499969
 30
        0.000000
 11
        3.885864
 21
       -0.000031
 31
        0.000000
  0
LINE
  8
0
 10
        4.538330
 20
        0.539948
 30
        0.000000
 11
        5.618347
 21
        0.539948
 31
        0.000000
  0
ARC
  8
0
 10
        5.618347
 20
        1.799957
 30
        0.000000
 40
        1.260010
 50
      270.000000
 51
      321.113068
  0
ARC
  8
0
 10
        5.793457
 20
        1.658722
 30
        0.000000
 40
        1.035002
 50
      321.115936
 51
      341.767532
  0
ARC
  8
0
 10
        3.998352
 20
        2.249969
 30
        0.000000
 40
        2.925010
 50
      341.769991
 51
      379.225526
  0
ARC
  8
0
 10
        5.761658
 20
        2.864960
 30
        0.000000
 40
        1.057506
 50
       19.224498
 51
       60.655034
  0
ARC
  8
0
 10
        5.618347
 20
        2.609955
 30
        0.000000
 40
        1.349971
 50
       60.655792
 51
       90.000000
  0
LINE
  8
0
 10
        5.618347
 20
        3.959991
 30
        0.000000
 11
        4.538330
 21
        3.959991
 31
        0.000000
  0
LINE
  8
0
 10
        4.538330
 20
        3.959991
 30
        0.000000
 11
        4.538330
 21
        0.539948
 31
        0.000000
  0
ARC
  8
0
 10
        9.848328
 20
        1.619965
 30
        0.000000
 40
        1.687505
 50
      182.290546
 51
      250.017988
  0
ARC
  8
0
 10
       10.118347
 20
        2.362457
 30
        0.000000
 40
        2.477590
 50
      250.017387
 51
      289.573223
  0
ARC
  8
0
 10
       10.478333
 20
        1.349945
 30
        0.000000
 40
        1.402978
 50
      289.574015
 51
      323.129613
  0
ARC
  8
0
 10
       10.568359
 20
        1.282501
 30
        0.000000
 40
        1.290503
 50
      323.130651
 51
      371.310995
  0
ARC
  8
0
 10
       10.680847
 20
        1.304962
 30
        0.000000
 40
        1.175727
 50
       11.310515
 51
       66.620384
  0
ARC
  8
0
 10
        9.772400
 20
       -0.796295
 30
        0.000000
 40
        3.464980
 50
       66.619981
 51
       78.310628
  0
LINE
  8
0
 10
       10.474426
 20
        2.596832
 30
        0.000000
 11
        9.833496
 21
        2.729401
 31
        0.000000
  0
ARC
  8
0
 10
       10.321472
 20
        5.086945
 30
        0.000000
 40
        2.407491
 50
      245.329582
 51
      258.305630
  0
ARC
  8
0
 10
        9.555847
 20
        3.419952
 30
        0.000000
 40
        0.573082
 50
      128.157564
 51
      245.323736
  0
ARC
  8
0
 10
        9.803345
 20
        3.104950
 30
        0.000000
 40
        0.973701
 50
      110.281963
 51
      128.156116
  0
ARC
  8
0
 10
        9.994568
 20
        2.587494
 30
        0.000000
 40
        1.525396
 50
       78.929252
 51
      110.283555
  0
ARC
  8
0
 10
       10.095825
 20
        3.104950
 30
        0.000000
 40
        0.998084
 50
        2.583152
 51
       78.929532
  0
LINE
  8
0
 10
       11.092896
 20
        3.149994
 30
        0.000000
 11
       11.670837
 21
        3.149994
 31
        0.000000
  0
ARC
  8
0
 10
       10.230835
 20
        3.149994
 30
        0.000000
 40
        1.440002
 50
        0.000000
 51
       78.690066
  0
ARC
  8
0
 10
       10.005859
 20
        2.024994
 30
        0.000000
 40
        2.587287
 50
       78.690592
 51
      108.591806
  0
ARC
  8
0
 10
        9.589600
 20
        3.262482
 30
        0.000000
 40
        1.281669
 50
      108.591976
 51
      142.430487
  0
ARC
  8
0
 10
        9.443359
 20
        3.374969
 30
        0.000000
 40
        1.097152
 50
      142.431402
 51
      248.880461
  0
ARC
  8
0
 10
       10.028992
 20
        4.891144
 30
        0.000000
 40
        2.722481
 50
      248.880352
 51
      257.660969
  0
LINE
  8
0
 10
        9.447205
 20
        2.231537
 30
        0.000000
 11
       10.277771
 21
        2.049835
 31
        0.000000
  0
ARC
  8
0
 10
        9.735840
 20
       -0.427521
 30
        0.000000
 40
        2.535994
 50
       63.434326
 51
       77.660995
  0
ARC
  8
0
 10
       10.568359
 20
        1.237457
 30
        0.000000
 40
        0.674451
 50
      327.532407
 51
      423.433787
  0
ARC
  8
0
 10
       10.320801
 20
        1.394989
 30
        0.000000
 40
        0.967809
 50
      286.860190
 51
      327.531178
  0
ARC
  8
0
 10
       10.095825
 20
        2.137482
 30
        0.000000
 40
        1.743658
 50
      254.357398
 51
      286.858414
  0
ARC
  8
0
 10
        9.938354
 20
        1.574982
 30
        0.000000
 40
        1.159546
 50
      180.021134
 51
      254.359092
  0
LINE
  8
0
 10
        8.778809
 20
        1.574554
 30
        0.000000
 11
        8.162170
 21
        1.552521
 31
        0.000000
  0
LINE
  8
0
 10
       12.803833
 20
        2.519989
 30
        0.000000
 11
       12.803833
 21
        1.934967
 31
        0.000000
  0
LINE
  8
0
 10
       12.803833
 20
        1.934967
 30
        0.000000
 11
       14.716309
 21
        1.934967
 31
        0.000000
  0
LINE
  8
0
 10
       14.716309
 20
        1.934967
 30
        0.000000
 11
       14.716309
 21
        2.519989
 31
        0.000000
  0
LINE
  8
0
 10
       14.716309
 20
        2.519989
 30
        0.000000
 11
       12.803833
 21
        2.519989
 31
        0.000000
  0
LINE
  8
0
 10
       15.796265
 20
       -0.000031
 30
        0.000000
 11
       18.894592
 21
       -0.000031
 31
        0.000000
  0
LINE
  8
0
 10
       18.894592
 20
       -0.000031
 30
        0.000000
 11
       18.894592
 21
        0.535797
 31
        0.000000
  0
LINE
  8
0
 10
       18.894592
 20
        0.535797
 30
        0.000000
 11
       16.486816
 21
        0.535797
 31
        0.000000
  0
ARC
  8
0
 10
       17.729858
 20
        0.139740
 30
        0.000000
 40
        1.304535
 50
      127.779759
 51
      162.328848
  0
ARC
  8
0
 10
       19.956116
 20
       -2.732574
 30
        0.000000
 40
        4.938629
 50
      117.146781
 51
      127.778502
  0
ARC
  8
0
 10
       15.353699
 20
        6.243134
 30
        0.000000
 40
        5.148326
 50
      297.147110
 51
      307.824170
  0
ARC
  8
0
 10
       17.710815
 20
        3.207001
 30
        0.000000
 40
        1.304539
 50
      307.823733
 51
      369.052689
  0
ARC
  8
0
 10
       17.613342
 20
        3.191437
 30
        0.000000
 40
        1.403227
 50
        9.054250
 51
       72.647158
  0
ARC
  8
0
 10
       17.496887
 20
        2.818695
 30
        0.000000
 40
        1.793750
 50
       72.645854
 51
      110.580907
  0
ARC
  8
0
 10
       17.382202
 20
        3.124054
 30
        0.000000
 40
        1.467636
 50
      110.581419
 51
      164.840800
  0
ARC
  8
0
 10
       18.079224
 20
        2.935211
 30
        0.000000
 40
        2.189784
 50
      164.840814
 51
      180.610074
  0
LINE
  8
0
 10
       15.889587
 20
        2.911896
 30
        0.000000
 11
       16.507385
 21
        2.911896
 31
        0.000000
  0
ARC
  8
0
 10
       18.358765
 20
        2.958466
 30
        0.000000
 40
        1.852015
 50
      163.527546
 51
      181.440898
  0
ARC
  8
0
 10
       17.342346
 20
        3.259064
 30
        0.000000
 40
        0.792035
 50
      112.056392
 51
      163.525729
  0
ARC
  8
0
 10
       17.473572
 20
        2.935211
 30
        0.000000
 40
        1.141486
 50
       66.801808
 51
      112.056269
  0
ARC
  8
0
 10
       17.675476
 20
        3.406281
 30
        0.000000
 40
        0.628996
 50
       34.095613
 51
       66.798488
  0
ARC
  8
0
 10
       17.427002
 20
        3.238068
 30
        0.000000
 40
        0.929059
 50
      336.801930
 51
      394.096176
  0
ARC
  8
0
 10
       17.263916
 20
        3.307953
 30
        0.000000
 40
        1.106442
 50
      307.223277
 51
      336.801001
  0
ARC
  8
0
 10
       14.980957
 20
        6.313019
 30
        0.000000
 40
        4.880394
 50
      298.847281
 51
      307.223469
  0
ARC
  8
0
 10
       19.796997
 20
       -2.430389
 30
        0.000000
 40
        5.101691
 50
      118.847006
 51
      131.671614
  0
ARC
  8
0
 10
       17.613220
 20
        0.023163
 30
        0.000000
 40
        1.817056
 50
      131.670767
 51
      180.731378
  0
ARC
  8
0
 10
       21.233521
 20
        2.890045
 30
        0.000000
 40
        1.722412
 50
       90.000000
 51
      138.367125
  0
ARC
  8
0
 10
       21.024048
 20
        3.076263
 30
        0.000000
 40
        1.442165
 50
      138.366046
 51
      167.020368
  0
ARC
  8
0
 10
       24.608521
 20
        2.249969
 30
        0.000000
 40
        5.120600
 50
      167.019248
 51
      180.000015
  0
ARC
  8
0
 10
       24.608521
 20
        2.249969
 30
        0.000000
 40
        5.120605
 50
      180.000015
 51
      192.980762
  0
ARC
  8
0
 10
       21.024048
 20
        1.423676
 30
        0.000000
 40
        1.442135
 50
      192.982278
 51
      221.633048
  0
ARC
  8
0
 10
       21.233521
 20
        1.609894
 30
        0.000000
 40
        1.722403
 50
      221.632885
 51
      270.000000
  0
ARC
  8
0
 10
       21.233521
 20
        1.609894
 30
        0.000000
 40
        1.722412
 50
      270.000000
 51
      318.367141
  0
ARC
  8
0
 10
       21.443054
 20
        1.423676
 30
        0.000000
 40
        1.442124
 50
      318.367878
 51
      347.020110
  0
ARC
  8
0
 10
       17.858521
 20
        2.249969
 30
        0.000000
 40
        5.120600
 50
      347.019263
 51
      360.000000
  0
ARC
  8
0
 10
       17.858521
 20
        2.249969
 30
        0.000000
 40
        5.120605
 50
        0.000000
 51
       12.980744
  0
ARC
  8
0
 10
       21.443054
 20
        3.076263
 30
        0.000000
 40
        1.442121
 50
       12.979894
 51
       41.632128
  0
ARC
  8
0
 10
       21.233521
 20
        2.890045
 30
        0.000000
 40
        1.722403
 50
       41.632863
 51
       90.000000
  0
ARC
  8
0
 10
       21.233521
 20
        3.076263
 30
        0.000000
 40
        1.000854
 50
       90.000000
 51
      140.193081
  0
ARC
  8
0
 10
       21.373230
 20
        2.959869
 30
        0.000000
 40
        1.182692
 50
      140.194420
 51
      169.073359
  0
ARC
  8
0
 10
       25.050781
 20
        2.249969
 30
        0.000000
 40
        4.928139
 50
      169.074015
 51
      180.000015
  0
ARC
  8
0
 10
       25.050781
 20
        2.249969
 30
        0.000000
 40
        4.928101
 50
      180.000015
 51
      190.926063
  0
ARC
  8
0
 10
       21.373230
 20
        1.540070
 30
        0.000000
 40
        1.182636
 50
      190.927211
 51
      219.807476
  0
ARC
  8
0
 10
       21.233521
 20
        1.423676
 30
        0.000000
 40
        1.000851
 50
      219.806929
 51
      270.000000
  0
ARC
  8
0
 10
       21.233521
 20
        1.423676
 30
        0.000000
 40
        1.000854
 50
      270.000000
 51
      320.193096
  0
ARC
  8
0
 10
       21.093872
 20
        1.540070
 30
        0.000000
 40
        1.182692
 50
      320.194435
 51
      349.073374
  0
ARC
  8
0
 10
       17.416321
 20
        2.249969
 30
        0.000000
 40
        4.928139
 50
      349.074030
 51
      360.000000
  0
ARC
  8
0
 10
       17.416321
 20
        2.249969
 30
        0.000000
 40
        4.928162
 50
        0.000000
 51
       10.925903
  0
ARC
  8
0
 10
       21.093872
 20
        2.959869
 30
        0.000000
 40
        1.182636
 50
       10.927185
 51
       39.802160
  0
ARC
  8
0
 10
       21.233521
 20
        3.076263
 30
        0.000000
 40
        1.000851
 50
       39.806911
 51
       90.000000
  0
LINE
  8
0
 10
       23.294189
 20
       -0.000031
 30
        0.000000
 11
       23.969177
 21
       -0.000031
 31
        0.000000
  0
LINE
  8
0
 10
       23.969177
 20
       -0.000031
 30
        0.000000
 11
       24.419189
 21
        1.349945
 31
        0.000000
  0
LINE
  8
0
 10
       24.419189
 20
        1.349945
 30
        0.000000
 11
       26.106689
 21
        1.349945
 31
        0.000000
  0
LINE
  8
0
 10
       26.106689
 20
        1.349945
 30
        0.000000
 11
       26.579163
 21
       -0.000031
 31
        0.000000
  0
LINE
  8
0
 10
       26.579163
 20
       -0.000031
 30
        0.000000
 11
       27.299194
 21
       -0.000031
 31
        0.000000
  0
LINE
  8
0
 10
       27.299194
 20
       -0.000031
 30
        0.000000
 11
       25.589172
 21
        4.499969
 31
        0.000000
  0
LINE
  8
0
 10
       25.589172
 20
        4.499969
 30
        0.000000
 11
       24.891663
 21
        4.499969
 31
        0.000000
  0
LINE
  8
0
 10
       24.891663
 20
        4.499969
 30
        0.000000
 11
       23.294189
 21
       -0.000031
 31
        0.000000
  0
LINE
  8
0
 10
       25.227539
 20
        3.844269
 30
        0.000000
 11
       24.576660
 21
        1.867462
 31
        0.000000
  0
LINE
  8
0
 10
       24.576660
 20
        1.867462
 30
        0.000000
 11
       25.926697
 21
        1.867462
 31
        0.000000
  0
LINE
  8
0
 10
       25.926697
 20
        1.867462
 30
        0.000000
 11
       25.227539
 21
        3.844269
 31
        0.000000
  0
LINE
  8
0
 10
       27.839172
 20
       -0.000031
 30
        0.000000
 11
       28.491699
 21
       -0.000031
 31
        0.000000
  0
LINE
  8
0
 10
       28.491699
 20
       -0.000031
 30
        0.000000
 11
       28.491699
 21
        1.574982
 31
        0.000000
  0
LINE
  8
0
 10
       28.491699
 20
        1.574982
 30
        0.000000
 11
       29.211670
 21
        2.249969
 31
        0.000000
  0
LINE
  8
0
 10
       29.211670
 20
        2.249969
 30
        0.000000
 11
       30.876709
 21
       -0.000031
 31
        0.000000
  0
LINE
  8
0
 10
       30.876709
 20
       -0.000031
 30
        0.000000
 11
       31.686646
 21
       -0.000031
 31
        0.000000
  0
LINE
  8
0
 10
       31.686646
 20
       -0.000031
 30
        0.000000
 11
       29.639160
 21
        2.654999
 31
        0.000000
  0
LINE
  8
0
 10
       29.639160
 20
        2.654999
 30
        0.000000
 11
       31.551697
 21
        4.499969
 31
        0.000000
  0
LINE
  8
0
 10
       31.551697
 20
        4.499969
 30
        0.000000
 11
       30.696655
 21
        4.499969
 31
        0.000000
  0
LINE
  8
0
 10
       30.696655
 20
        4.499969
 30
        0.000000
 11
       28.491699
 21
        2.348724
 31
        0.000000
  0
LINE
  8
0
 10
       28.491699
 20
        2.348724
 30
        0.000000
 11
       28.491699
 21
        4.499969
 31
        0.000000
  0
LINE
  8
0
 10
       28.491699
 20
        4.499969
 30
        0.000000
 11
       27.839172
 21
        4.499969
 31
        0.000000
  0
LINE
  8
0
 10
       27.839172
 20
        4.499969
 30
        0.000000
 11
       27.839172
 21
       -0.000031
 31
        0.000000
  0
ARC
  8
0
 10
      -45.549988
 20
       12.167999
 30
        0.000000
 40
        2.362483
 50
      182.290574
 51
      250.016649
  0
ARC
  8
0
 10
      -45.171997
 20
       13.207489
 30
        0.000000
 40
        3.468596
 50
      250.017004
 51
      289.573715
  0
ARC
  8
0
 10
      -44.667969
 20
       11.789948
 30
        0.000000
 40
        1.964150
 50
      289.573469
 51
      323.131880
  0
ARC
  8
0
 10
      -44.541992
 20
       11.695465
 30
        0.000000
 40
        1.806641
 50
      323.130104
 51
      371.309932
  0
ARC
  8
0
 10
      -44.384521
 20
       11.726959
 30
        0.000000
 40
        1.646040
 50
       11.309932
 51
       66.619940
  0
ARC
  8
0
 10
      -45.656311
 20
        8.785187
 30
        0.000000
 40
        4.850989
 50
       66.620227
 51
       78.310457
  0
LINE
  8
0
 10
      -44.673462
 20
       13.535553
 30
        0.000000
 11
      -45.570801
 21
       13.721222
 31
        0.000000
  0
ARC
  8
0
 10
      -44.887573
 20
       17.021759
 30
        0.000000
 40
        3.370465
 50
      245.328926
 51
      258.304482
  0
ARC
  8
0
 10
      -45.959473
 20
       14.687958
 30
        0.000000
 40
        0.802338
 50
      128.154040
 51
      245.324118
  0
ARC
  8
0
 10
      -45.612976
 20
       14.246979
 30
        0.000000
 40
        1.363205
 50
      110.281608
 51
      128.157796
  0
ARC
  8
0
 10
      -45.345215
 20
       13.522491
 30
        0.000000
 40
        2.135559
 50
       78.930283
 51
      110.282632
  0
ARC
  8
0
 10
      -45.203491
 20
       14.246979
 30
        0.000000
 40
        1.397355
 50
        2.583585
 51
       78.929819
  0
LINE
  8
0
 10
      -43.807556
 20
       14.309967
 30
        0.000000
 11
      -42.998474
 21
       14.309967
 31
        0.000000
  0
ARC
  8
0
 10
      -45.014465
 20
       14.309967
 30
        0.000000
 40
        2.015991
 50
        0.000000
 51
       78.689553
  0
ARC
  8
0
 10
      -45.329468
 20
       12.734955
 30
        0.000000
 40
        3.622223
 50
       78.689874
 51
      108.590644
  0
ARC
  8
0
 10
      -45.912231
 20
       14.467499
 30
        0.000000
 40
        1.794306
 50
      108.590255
 51
      142.431757
  0
ARC
  8
0
 10
      -46.117004
 20
       14.624969
 30
        0.000000
 40
        1.536003
 50
      142.431129
 51
      248.879723
  0
ARC
  8
0
 10
      -45.297119
 20
       16.747650
 30
        0.000000
 40
        3.811501
 50
      248.880297
 51
      257.660805
  0
LINE
  8
0
 10
      -46.111572
 20
       13.024200
 30
        0.000000
 11
      -44.948792
 21
       12.769806
 31
        0.000000
  0
ARC
  8
0
 10
      -45.707520
 20
        9.301483
 30
        0.000000
 40
        3.550359
 50
       63.434948
 51
       77.661467
  0
ARC
  8
0
 10
      -44.541992
 20
       11.632477
 30
        0.000000
 40
        0.944260
 50
      327.528254
 51
      423.438260
  0
ARC
  8
0
 10
      -44.888489
 20
       11.852997
 30
        0.000000
 40
        1.354923
 50
      286.858715
 51
      327.530905
  0
ARC
  8
0
 10
      -45.203491
 20
       12.892487
 30
        0.000000
 40
        2.441118
 50
      254.357671
 51
      286.858496
  0
ARC
  8
0
 10
      -45.423950
 20
       12.104950
 30
        0.000000
 40
        1.623352
 50
      180.021557
 51
      254.358518
  0
LINE
  8
0
 10
      -47.047302
 20
       12.104401
 30
        0.000000
 11
      -47.910583
 21
       12.073517
 31
        0.000000
  0
LINE
  8
0
 10
      -42.231323
 20
        9.899994
 30
        0.000000
 11
      -41.286316
 21
        9.899994
 31
        0.000000
  0
LINE
  8
0
 10
      -41.286316
 20
        9.899994
 30
        0.000000
 11
      -40.656311
 21
       11.789948
 31
        0.000000
  0
LINE
  8
0
 10
      -40.656311
 20
       11.789948
 30
        0.000000
 11
      -38.293823
 21
       11.789948
 31
        0.000000
  0
LINE
  8
0
 10
      -38.293823
 20
       11.789948
 30
        0.000000
 11
      -37.632324
 21
        9.899994
 31
        0.000000
  0
LINE
  8
0
 10
      -37.632324
 20
        9.899994
 30
        0.000000
 11
      -36.624329
 21
        9.899994
 31
        0.000000
  0
LINE
  8
0
 10
      -36.624329
 20
        9.899994
 30
        0.000000
 11
      -39.018311
 21
       16.199982
 31
        0.000000
  0
LINE
  8
0
 10
      -39.018311
 20
       16.199982
 30
        0.000000
 11
      -39.994812
 21
       16.199982
 31
        0.000000
  0
LINE
  8
0
 10
      -39.994812
 20
       16.199982
 30
        0.000000
 11
      -42.231323
 21
        9.899994
 31
        0.000000
  0
LINE
  8
0
 10
      -39.524597
 20
       15.281952
 30
        0.000000
 11
      -40.435791
 21
       12.514496
 31
        0.000000
  0
LINE
  8
0
 10
      -40.435791
 20
       12.514496
 30
        0.000000
 11
      -38.545837
 21
       12.514496
 31
        0.000000
  0
LINE
  8
0
 10
      -38.545837
 20
       12.514496
 30
        0.000000
 11
      -39.524597
 21
       15.281952
 31
        0.000000
  0
LINE
  8
0
 10
      -37.191345
 20
       15.444000
 30
        0.000000
 11
      -35.175354
 21
       15.444000
 31
        0.000000
  0
LINE
  8
0
 10
      -35.175354
 20
       15.444000
 30
        0.000000
 11
      -35.175354
 21
        9.899994
 31
        0.000000
  0
LINE
  8
0
 10
      -35.175354
 20
        9.899994
 30
        0.000000
 11
      -34.261841
 21
        9.899994
 31
        0.000000
  0
LINE
  8
0
 10
      -34.261841
 20
        9.899994
 30
        0.000000
 11
      -34.261841
 21
       15.444000
 31
        0.000000
  0
LINE
  8
0
 10
      -34.261841
 20
       15.444000
 30
        0.000000
 11
      -32.245789
 21
       15.444000
 31
        0.000000
  0
LINE
  8
0
 10
      -32.245789
 20
       15.444000
 30
        0.000000
 11
      -32.245789
 21
       16.199982
 31
        0.000000
  0
LINE
  8
0
 10
      -32.245789
 20
       16.199982
 30
        0.000000
 11
      -37.191345
 21
       16.199982
 31
        0.000000
  0
LINE
  8
0
 10
      -37.191345
 20
       16.199982
 30
        0.000000
 11
      -37.191345
 21
       15.444000
 31
        0.000000
  0
LINE
  8
0
 10
      -31.426819
 20
        9.899994
 30
        0.000000
 11
      -26.670288
 21
        9.899994
 31
        0.000000
  0
LINE
  8
0
 10
      -26.670288
 20
        9.899994
 30
        0.000000
 11
      -26.670288
 21
       10.718964
 31
        0.000000
  0
LINE
  8
0
 10
      -26.670288
 20
       10.718964
 30
        0.000000
 11
      -30.513306
 21
       10.718964
 31
        0.000000
  0
LINE
  8
0
 10
      -30.513306
 20
       10.718964
 30
        0.000000
 11
      -30.513306
 21
       12.798004
 31
        0.000000
  0
LINE
  8
0
 10
      -30.513306
 20
       12.798004
 30
        0.000000
 11
      -27.079834
 21
       12.798004
 31
        0.000000
  0
LINE
  8
0
 10
      -27.079834
 20
       12.798004
 30
        0.000000
 11
      -27.079834
 21
       13.553986
 31
        0.000000
  0
LINE
  8
0
 10
      -27.079834
 20
       13.553986
 30
        0.000000
 11
      -30.513306
 21
       13.553986
 31
        0.000000
  0
LINE
  8
0
 10
      -30.513306
 20
       13.553986
 30
        0.000000
 11
      -30.513306
 21
       15.412506
 31
        0.000000
  0
LINE
  8
0
 10
      -30.513306
 20
       15.412506
 30
        0.000000
 11
      -26.764832
 21
       15.412506
 31
        0.000000
  0
LINE
  8
0
 10
      -26.764832
 20
       15.412506
 30
        0.000000
 11
      -26.764832
 21
       16.199982
 31
        0.000000
  0
LINE
  8
0
 10
      -26.764832
 20
       16.199982
 30
        0.000000
 11
      -31.426819
 21
       16.199982
 31
        0.000000
  0
LINE
  8
0
 10
      -31.426819
 20
       16.199982
 30
        0.000000
 11
      -31.426819
 21
        9.899994
 31
        0.000000
  0
LINE
  8
0
 10
      -25.441833
 20
        9.899994
 30
        0.000000
 11
      -21.189331
 21
        9.899994
 31
        0.000000
  0
LINE
  8
0
 10
      -21.189331
 20
        9.899994
 30
        0.000000
 11
      -21.189331
 21
       10.718964
 31
        0.000000
  0
LINE
  8
0
 10
      -21.189331
 20
       10.718964
 30
        0.000000
 11
      -24.528320
 21
       10.718964
 31
        0.000000
  0
LINE
  8
0
 10
      -24.528320
 20
       10.718964
 30
        0.000000
 11
      -24.528320
 21
       16.199982
 31
        0.000000
  0
LINE
  8
0
 10
      -24.528320
 20
       16.199982
 30
        0.000000
 11
      -25.441833
 21
       16.199982
 31
        0.000000
  0
LINE
  8
0
 10
      -25.441833
 20
       16.199982
 30
        0.000000
 11
      -25.441833
 21
        9.899994
 31
        0.000000
  0
LINE
  8
0
 10
      -20.433350
 20
        9.899994
 30
        0.000000
 11
      -16.180847
 21
        9.899994
 31
        0.000000
  0
LINE
  8
0
 10
      -16.180847
 20
        9.899994
 30
        0.000000
 11
      -16.180847
 21
       10.718964
 31
        0.000000
  0
LINE
  8
0
 10
      -16.180847
 20
       10.718964
 30
        0.000000
 11
      -19.519836
 21
       10.718964
 31
        0.000000
  0
LINE
  8
0
 10
      -19.519836
 20
       10.718964
 30
        0.000000
 11
      -19.519836
 21
       16.199982
 31
        0.000000
  0
LINE
  8
0
 10
      -19.519836
 20
       16.199982
 30
        0.000000
 11
      -20.433350
 21
       16.199982
 31
        0.000000
  0
LINE
  8
0
 10
      -20.433350
 20
       16.199982
 30
        0.000000
 11
      -20.433350
 21
        9.899994
 31
        0.000000
  0
LINE
  8
0
 10
      -15.424805
 20
        9.899994
 30
        0.000000
 11
      -14.511353
 21
        9.899994
 31
        0.000000
  0
LINE
  8
0
 10
      -14.511353
 20
        9.899994
 30
        0.000000
 11
      -14.511353
 21
       16.199982
 31
        0.000000
  0
LINE
  8
0
 10
      -14.511353
 20
       16.199982
 30
        0.000000
 11
      -15.424805
 21
       16.199982
 31
        0.000000
  0
LINE
  8
0
 10
      -15.424805
 20
       16.199982
 30
        0.000000
 11
      -15.424805
 21
        9.899994
 31
        0.000000
  0
LINE
  8
0
 10
      -13.692322
 20
       15.444000
 30
        0.000000
 11
      -11.676331
 21
       15.444000
 31
        0.000000
  0
LINE
  8
0
 10
      -11.676331
 20
       15.444000
 30
        0.000000
 11
      -11.676331
 21
        9.899994
 31
        0.000000
  0
LINE
  8
0
 10
      -11.676331
 20
        9.899994
 30
        0.000000
 11
      -10.762817
 21
        9.899994
 31
        0.000000
  0
LINE
  8
0
 10
      -10.762817
 20
        9.899994
 30
        0.000000
 11
      -10.762817
 21
       15.444000
 31
        0.000000
  0
LINE
  8
0
 10
      -10.762817
 20
       15.444000
 30
        0.000000
 11
       -8.746826
 21
       15.444000
 31
        0.000000
  0
LINE
  8
0
 10
       -8.746826
 20
       15.444000
 30
        0.000000
 11
       -8.746826
 21
       16.199982
 31
        0.000000
  0
LINE
  8
0
 10
       -8.746826
 20
       16.199982
 30
        0.000000
 11
      -13.692322
 21
       16.199982
 31
        0.000000
  0
LINE
  8
0
 10
      -13.692322
 20
       16.199982
 30
        0.000000
 11
      -13.692322
 21
       15.444000
 31
        0.000000
  0
LINE
  8
0
 10
       -7.927856
 20
        9.899994
 30
        0.000000
 11
       -3.171326
 21
        9.899994
 31
        0.000000
  0
LINE
  8
0
 10
       -3.171326
 20
        9.899994
 30
        0.000000
 11
       -3.171326
 21
       10.718964
 31
        0.000000
  0
LINE
  8
0
 10
       -3.171326
 20
       10.718964
 30
        0.000000
 11
       -7.014343
 21
       10.718964
 31
        0.000000
  0
LINE
  8
0
 10
       -7.014343
 20
       10.718964
 30
        0.000000
 11
       -7.014343
 21
       12.798004
 31
        0.000000
  0
LINE
  8
0
 10
       -7.014343
 20
       12.798004
 30
        0.000000
 11
       -3.580811
 21
       12.798004
 31
        0.000000
  0
LINE
  8
0
 10
       -3.580811
 20
       12.798004
 30
        0.000000
 11
       -3.580811
 21
       13.553986
 31
        0.000000
  0
LINE
  8
0
 10
       -3.580811
 20
       13.553986
 30
        0.000000
 11
       -7.014343
 21
       13.553986
 31
        0.000000
  0
LINE
  8
0
 10
       -7.014343
 20
       13.553986
 30
        0.000000
 11
       -7.014343
 21
       15.412506
 31
        0.000000
  0
LINE
  8
0
 10
       -7.014343
 20
       15.412506
 30
        0.000000
 11
       -3.265808
 21
       15.412506
 31
        0.000000
  0
LINE
  8
0
 10
       -3.265808
 20
       15.412506
 30
        0.000000
 11
       -3.265808
 21
       16.199982
 31
        0.000000
  0
LINE
  8
0
 10
       -3.265808
 20
       16.199982
 30
        0.000000
 11
       -7.927856
 21
       16.199982
 31
        0.000000
  0
LINE
  8
0
 10
       -7.927856
 20
       16.199982
 30
        0.000000
 11
       -7.927856
 21
        9.899994
 31
        0.000000
  0
LINE
  8
0
 10
        1.648193
 20
        9.899994
 30
        0.000000
 11
        2.561646
 21
        9.899994
 31
        0.000000
  0
LINE
  8
0
 10
        2.561646
 20
        9.899994
 30
        0.000000
 11
        2.561646
 21
       16.199982
 31
        0.000000
  0
LINE
  8
0
 10
        2.561646
 20
       16.199982
 30
        0.000000
 11
        1.648193
 21
       16.199982
 31
        0.000000
  0
LINE
  8
0
 10
        1.648193
 20
       16.199982
 30
        0.000000
 11
        1.648193
 21
        9.899994
 31
        0.000000
  0
LINE
  8
0
 10
        4.010681
 20
        9.899994
 30
        0.000000
 11
        6.404663
 21
        9.899994
 31
        0.000000
  0
ARC
  8
0
 10
        6.404663
 20
       12.766449
 30
        0.000000
 40
        2.866516
 50
      270.000000
 51
      299.129614
  0
ARC
  8
0
 10
        6.573364
 20
       12.463776
 30
        0.000000
 40
        2.519986
 50
      299.130898
 51
      344.635527
  0
ARC
  8
0
 10
        4.325684
 20
       13.081451
 30
        0.000000
 40
        4.851011
 50
      344.634489
 51
      374.776806
  0
ARC
  8
0
 10
        6.670959
 20
       13.700104
 30
        0.000000
 40
        2.425500
 50
       14.777245
 51
       49.809528
  0
ARC
  8
0
 10
        6.467651
 20
       13.459503
 30
        0.000000
 40
        2.740492
 50
       49.808674
 51
       90.000000
  0
LINE
  8
0
 10
        6.467651
 20
       16.199982
 30
        0.000000
 11
        4.010681
 21
       16.199982
 31
        0.000000
  0
LINE
  8
0
 10
        4.010681
 20
       16.199982
 30
        0.000000
 11
        4.010681
 21
        9.899994
 31
        0.000000
  0
LINE
  8
0
 10
        4.924194
 20
       10.655975
 30
        0.000000
 11
        6.436157
 21
       10.655975
 31
        0.000000
  0
ARC
  8
0
 10
        6.436157
 20
       12.419952
 30
        0.000000
 40
        1.763977
 50
      270.000000
 51
      321.115882
  0
ARC
  8
0
 10
        6.681335
 20
       12.222260
 30
        0.000000
 40
        1.449041
 50
      321.114051
 51
      341.768816
  0
ARC
  8
0
 10
        4.168152
 20
       13.049957
 30
        0.000000
 40
        4.094987
 50
      341.770564
 51
      379.226771
  0
ARC
  8
0
 10
        6.636841
 20
       13.910919
 30
        0.000000
 40
        1.480471
 50
       19.227507
 51
       60.655047
  0
ARC
  8
0
 10
        6.436157
 20
       13.553986
 30
        0.000000
 40
        1.890024
 50
       60.656051
 51
       90.000000
  0
LINE
  8
0
 10
        6.436157
 20
       15.444000
 30
        0.000000
 11
        4.924194
 21
       15.444000
 31
        0.000000
  0
LINE
  8
0
 10
        4.924194
 20
       15.444000
 30
        0.000000
 11
        4.924194
 21
       10.655975
 31
        0.000000
  0
ARC
  8
0
 10
       15.949158
 20
       12.167999
 30
        0.000000
 40
        2.362483
 50
      182.290574
 51
      250.016649
  0
ARC
  8
0
 10
       16.327148
 20
       13.207489
 30
        0.000000
 40
        3.468596
 50
      250.017004
 51
      289.573715
  0
ARC
  8
0
 10
       16.831177
 20
       11.789948
 30
        0.000000
 40
        1.964150
 50
      289.573469
 51
      323.131880
  0
ARC
  8
0
 10
       16.957153
 20
       11.695465
 30
        0.000000
 40
        1.806641
 50
      323.130104
 51
      371.309932
  0
ARC
  8
0
 10
       17.114624
 20
       11.726959
 30
        0.000000
 40
        1.646040
 50
       11.309932
 51
       66.619940
  0
ARC
  8
0
 10
       15.842834
 20
        8.785187
 30
        0.000000
 40
        4.850989
 50
       66.620227
 51
       78.310457
  0
LINE
  8
0
 10
       16.825684
 20
       13.535553
 30
        0.000000
 11
       15.928406
 21
       13.721222
 31
        0.000000
  0
ARC
  8
0
 10
       16.611572
 20
       17.021759
 30
        0.000000
 40
        3.370490
 50
      245.327998
 51
      258.305712
  0
ARC
  8
0
 10
       15.539673
 20
       14.687958
 30
        0.000000
 40
        0.802375
 50
      128.157468
 51
      245.325921
  0
ARC
  8
0
 10
       15.886169
 20
       14.246979
 30
        0.000000
 40
        1.363205
 50
      110.281608
 51
      128.157796
  0
ARC
  8
0
 10
       16.153931
 20
       13.522491
 30
        0.000000
 40
        2.135559
 50
       78.930283
 51
      110.282632
  0
ARC
  8
0
 10
       16.295654
 20
       14.246979
 30
        0.000000
 40
        1.397355
 50
        2.583585
 51
       78.929819
  0
LINE
  8
0
 10
       17.691589
 20
       14.309967
 30
        0.000000
 11
       18.500671
 21
       14.309967
 31
        0.000000
  0
ARC
  8
0
 10
       16.484680
 20
       14.309967
 30
        0.000000
 40
        2.015991
 50
        0.000000
 51
       78.689553
  0
ARC
  8
0
 10
       16.169678
 20
       12.734955
 30
        0.000000
 40
        3.622211
 50
       78.690824
 51
      108.590795
  0
ARC
  8
0
 10
       15.586914
 20
       14.467499
 30
        0.000000
 40
        1.794325
 50
      108.592099
 51
      142.432345
  0
ARC
  8
0
 10
       15.382202
 20
       14.624969
 30
        0.000000
 40
        1.536003
 50
      142.431129
 51
      248.879723
  0
ARC
  8
0
 10
       16.202087
 20
       16.747650
 30
        0.000000
 40
        3.811501
 50
      248.880297
 51
      257.660805
  0
LINE
  8
0
 10
       15.387573
 20
       13.024200
 30
        0.000000
 11
       16.550354
 21
       12.769806
 31
        0.000000
  0
ARC
  8
0
 10
       15.791626
 20
        9.301483
 30
        0.000000
 40
        3.550359
 50
       63.434948
 51
       77.660503
  0
ARC
  8
0
 10
       16.957153
 20
       11.632477
 30
        0.000000
 40
        0.944260
 50
      327.528254
 51
      423.438260
  0
ARC
  8
0
 10
       16.610657
 20
       11.852997
 30
        0.000000
 40
        1.354923
 50
      286.858715
 51
      327.530905
  0
ARC
  8
0
 10
       16.295654
 20
       12.892487
 30
        0.000000
 40
        2.441118
 50
      254.357671
 51
      286.858496
  0
ARC
  8
0
 10
       16.075195
 20
       12.104950
 30
        0.000000
 40
        1.623352
 50
      180.021557
 51
      254.356442
  0
LINE
  8
0
 10
       14.451843
 20
       12.104401
 30
        0.000000
 11
       13.588562
 21
       12.073517
 31
        0.000000
  0
LINE
  8
0
 10
       18.889832
 20
       16.199982
 30
        0.000000
 11
       21.283813
 21
       12.545990
 31
        0.000000
  0
LINE
  8
0
 10
       21.283813
 20
       12.545990
 30
        0.000000
 11
       21.283813
 21
        9.899994
 31
        0.000000
  0
LINE
  8
0
 10
       21.283813
 20
        9.899994
 30
        0.000000
 11
       22.197327
 21
        9.899994
 31
        0.000000
  0
LINE
  8
0
 10
       22.197327
 20
        9.899994
 30
        0.000000
 11
       22.197327
 21
       12.545990
 31
        0.000000
  0
LINE
  8
0
 10
       22.197327
 20
       12.545990
 30
        0.000000
 11
       24.591309
 21
       16.199982
 31
        0.000000
  0
LINE
  8
0
 10
       24.591309
 20
       16.199982
 30
        0.000000
 11
       23.551819
 21
       16.199982
 31
        0.000000
  0
LINE
  8
0
 10
       23.551819
 20
       16.199982
 30
        0.000000
 11
       21.739563
 21
       13.246613
 31
        0.000000
  0
LINE
  8
0
 10
       21.739563
 20
       13.246613
 30
        0.000000
 11
       19.960815
 21
       16.199982
 31
        0.000000
  0
LINE
  8
0
 10
       19.960815
 20
       16.199982
 30
        0.000000
 11
       18.889832
 21
       16.199982
 31
        0.000000
  0
ARC
  8
0
 10
       27.079834
 20
       12.167999
 30
        0.000000
 40
        2.362483
 50
      182.290574
 51
      250.016649
  0
ARC
  8
0
 10
       27.457825
 20
       13.207489
 30
        0.000000
 40
        3.468596
 50
      250.017004
 51
      289.573715
  0
ARC
  8
0
 10
       27.961792
 20
       11.789948
 30
        0.000000
 40
        1.964150
 50
      289.573469
 51
      323.131880
  0
ARC
  8
0
 10
       28.087830
 20
       11.695465
 30
        0.000000
 40
        1.806690
 50
      323.131279
 51
      371.309552
  0
ARC
  8
0
 10
       28.245300
 20
       11.726959
 30
        0.000000
 40
        1.646040
 50
       11.309932
 51
       66.619940
  0
ARC
  8
0
 10
       26.973511
 20
        8.785187
 30
        0.000000
 40
        4.850989
 50
       66.620227
 51
       78.310457
  0
LINE
  8
0
 10
       27.956360
 20
       13.535553
 30
        0.000000
 11
       27.059021
 21
       13.721222
 31
        0.000000
  0
ARC
  8
0
 10
       27.742249
 20
       17.021759
 30
        0.000000
 40
        3.370490
 50
      245.327998
 51
      258.304592
  0
ARC
  8
0
 10
       26.670288
 20
       14.687958
 30
        0.000000
 40
        0.802375
 50
      128.157468
 51
      245.325921
  0
ARC
  8
0
 10
       27.016846
 20
       14.246979
 30
        0.000000
 40
        1.363205
 50
      110.281608
 51
      128.157796
  0
ARC
  8
0
 10
       27.284546
 20
       13.522491
 30
        0.000000
 40
        2.135559
 50
       78.930283
 51
      110.282632
  0
ARC
  8
0
 10
       27.426331
 20
       14.246979
 30
        0.000000
 40
        1.397355
 50
        2.583585
 51
       78.929819
  0
LINE
  8
0
 10
       28.822266
 20
       14.309967
 30
        0.000000
 11
       29.631348
 21
       14.309967
 31
        0.000000
  0
ARC
  8
0
 10
       27.615356
 20
       14.309967
 30
        0.000000
 40
        2.015991
 50
        0.000000
 51
       78.691254
  0
ARC
  8
0
 10
       27.300354
 20
       12.734955
 30
        0.000000
 40
        3.622211
 50
       78.690824
 51
      108.590795
  0
ARC
  8
0
 10
       26.717529
 20
       14.467499
 30
        0.000000
 40
        1.794306
 50
      108.590255
 51
      142.433123
  0
ARC
  8
0
 10
       26.512817
 20
       14.624969
 30
        0.000000
 40
        1.536003
 50
      142.431129
 51
      248.879723
  0
ARC
  8
0
 10
       27.332764
 20
       16.747650
 30
        0.000000
 40
        3.811501
 50
      248.880297
 51
      257.660805
  0
LINE
  8
0
 10
       26.518188
 20
       13.024200
 30
        0.000000
 11
       27.681030
 21
       12.769806
 31
        0.000000
  0
ARC
  8
0
 10
       26.922302
 20
        9.301483
 30
        0.000000
 40
        3.550359
 50
       63.434948
 51
       77.660503
  0
ARC
  8
0
 10
       28.087830
 20
       11.632477
 30
        0.000000
 40
        0.944260
 50
      327.528254
 51
      423.434115
  0
ARC
  8
0
 10
       27.741333
 20
       11.852997
 30
        0.000000
 40
        1.354923
 50
      286.858715
 51
      327.526260
  0
ARC
  8
0
 10
       27.426331
 20
       12.892487
 30
        0.000000
 40
        2.441118
 50
      254.357671
 51
      286.858496
  0
ARC
  8
0
 10
       27.205811
 20
       12.104950
 30
        0.000000
 40
        1.623352
 50
      180.021557
 51
      254.356442
  0
LINE
  8
0
 10
       25.582520
 20
       12.104401
 30
        0.000000
 11
       24.719238
 21
       12.073517
 31
        0.000000
  0
LINE
  8
0
 10
       30.020508
 20
       15.444000
 30
        0.000000
 11
       32.036499
 21
       15.444000
 31
        0.000000
  0
LINE
  8
0
 10
       32.036499
 20
       15.444000
 30
        0.000000
 11
       32.036499
 21
        9.899994
 31
        0.000000
  0
LINE
  8
0
 10
       32.036499
 20
        9.899994
 30
        0.000000
 11
       32.950012
 21
        9.899994
 31
        0.000000
  0
LINE
  8
0
 10
       32.950012
 20
        9.899994
 30
        0.000000
 11
       32.950012
 21
       15.444000
 31
        0.000000
  0
LINE
  8
0
 10
       32.950012
 20
       15.444000
 30
        0.000000
 11
       34.966003
 21
       15.444000
 31
        0.000000
  0
LINE
  8
0
 10
       34.966003
 20
       15.444000
 30
        0.000000
 11
       34.966003
 21
       16.199982
 31
        0.000000
  0
LINE
  8
0
 10
       34.966003
 20
       16.199982
 30
        0.000000
 11
       30.020508
 21
       16.199982
 31
        0.000000
  0
LINE
  8
0
 10
       30.020508
 20
       16.199982
 30
        0.000000
 11
       30.020508
 21
       15.444000
 31
        0.000000
  0
LINE
  8
0
 10
       35.784973
 20
        9.899994
 30
        0.000000
 11
       40.541504
 21
        9.899994
 31
        0.000000
  0
LINE
  8
0
 10
       40.541504
 20
        9.899994
 30
        0.000000
 11
       40.541504
 21
       10.718964
 31
        0.000000
  0
LINE
  8
0
 10
       40.541504
 20
       10.718964
 30
        0.000000
 11
       36.698486
 21
       10.718964
 31
        0.000000
  0
LINE
  8
0
 10
       36.698486
 20
       10.718964
 30
        0.000000
 11
       36.698486
 21
       12.798004
 31
        0.000000
  0
LINE
  8
0
 10
       36.698486
 20
       12.798004
 30
        0.000000
 11
       40.131958
 21
       12.798004
 31
        0.000000
  0
LINE
  8
0
 10
       40.131958
 20
       12.798004
 30
        0.000000
 11
       40.131958
 21
       13.553986
 31
        0.000000
  0
LINE
  8
0
 10
       40.131958
 20
       13.553986
 30
        0.000000
 11
       36.698486
 21
       13.553986
 31
        0.000000
  0
LINE
  8
0
 10
       36.698486
 20
       13.553986
 30
        0.000000
 11
       36.698486
 21
       15.412506
 31
        0.000000
  0
LINE
  8
0
 10
       36.698486
 20
       15.412506
 30
        0.000000
 11
       40.446960
 21
       15.412506
 31
        0.000000
  0
LINE
  8
0
 10
       40.446960
 20
       15.412506
 30
        0.000000
 11
       40.446960
 21
       16.199982
 31
        0.000000
  0
LINE
  8
0
 10
       40.446960
 20
       16.199982
 30
        0.000000
 11
       35.784973
 21
       16.199982
 31
        0.000000
  0
LINE
  8
0
 10
       35.784973
 20
       16.199982
 30
        0.000000
 11
       35.784973
 21
        9.899994
 31
        0.000000
  0
LINE
  8
0
 10
       41.770020
 20
        9.899994
 30
        0.000000
 11
       42.588989
 21
        9.899994
 31
        0.000000
  0
LINE
  8
0
 10
       42.588989
 20
        9.899994
 30
        0.000000
 11
       42.588989
 21
       14.741058
 31
        0.000000
  0
LINE
  8
0
 10
       42.588989
 20
       14.741058
 30
        0.000000
 11
       44.479004
 21
        9.899994
 31
        0.000000
  0
LINE
  8
0
 10
       44.479004
 20
        9.899994
 30
        0.000000
 11
       45.171997
 21
        9.899994
 31
        0.000000
  0
LINE
  8
0
 10
       45.171997
 20
        9.899994
 30
        0.000000
 11
       47.093506
 21
       14.736847
 31
        0.000000
  0
LINE
  8
0
 10
       47.093506
 20
       14.736847
 30
        0.000000
 11
       47.093506
 21
        9.899994
 31
        0.000000
  0
LINE
  8
0
 10
       47.093506
 20
        9.899994
 30
        0.000000
 11
       47.912476
 21
        9.899994
 31
        0.000000
  0
LINE
  8
0
 10
       47.912476
 20
        9.899994
 30
        0.000000
 11
       47.912476
 21
       16.199982
 31
        0.000000
  0
LINE
  8
0
 10
       47.912476
 20
       16.199982
 30
        0.000000
 11
       46.809998
 21
       16.199982
 31
        0.000000
  0
LINE
  8
0
 10
       46.809998
 20
       16.199982
 30
        0.000000
 11
       44.824402
 21
       11.017303
 31
        0.000000
  0
LINE
  8
0
 10
       44.824402
 20
       11.017303
 30
        0.000000
 11
       42.872498
 21
       16.199982
 31
        0.000000
  0
LINE
  8
0
 10
       42.872498
 20
       16.199982
 30
        0.000000
 11
       41.770020
 21
       16.199982
 31
        0.000000
  0
LINE
  8
0
 10
       41.770020
 20
       16.199982
 30
        0.000000
 11
       41.770020
 21
        9.899994
 31
        0.000000
  0
LINE
  8
0
 10
      -11.449402
 20
      -29.700073
 30
        0.000000
 11
       -1.534851
 21
      -29.700073
 31
        0.000000
  0
LINE
  8
0
 10
       -1.534851
 20
      -29.700073
 30
        0.000000
 11
       -1.534851
 21
      -27.985474
 31
        0.000000
  0
LINE
  8
0
 10
       -1.534851
 20
      -27.985474
 30
        0.000000
 11
       -9.239685
 21
      -27.985474
 31
        0.000000
  0
ARC
  8
0
 10
       -5.262146
 20
      -29.252808
 30
        0.000000
 40
        4.174548
 50
      127.778502
 51
      162.327728
  0
ARC
  8
0
 10
        1.861938
 20
      -38.444214
 30
        0.000000
 40
       15.803637
 50
      117.147041
 51
      127.778420
  0
ARC
  8
0
 10
      -12.865784
 20
       -9.721832
 30
        0.000000
 40
       16.474518
 50
      297.147220
 51
      307.824088
  0
ARC
  8
0
 10
       -5.322998
 20
      -19.437622
 30
        0.000000
 40
        4.174565
 50
      307.823924
 51
      369.053848
  0
ARC
  8
0
 10
       -5.634888
 20
      -19.487305
 30
        0.000000
 40
        4.490392
 50
        9.053641
 51
       72.646250
  0
ARC
  8
0
 10
       -6.007568
 20
      -20.680054
 30
        0.000000
 40
        5.739984
 50
       72.645936
 51
      110.580709
  0
ARC
  8
0
 10
       -6.374451
 20
      -19.703003
 30
        0.000000
 40
        4.696391
 50
      110.580354
 51
      164.841169
  0
ARC
  8
0
 10
       -4.143982
 20
      -20.307251
 30
        0.000000
 40
        7.007256
 50
      164.840910
 51
      180.609391
  0
LINE
  8
0
 10
      -11.150818
 20
      -20.381836
 30
        0.000000
 11
       -9.173889
 21
      -20.381836
 31
        0.000000
  0
ARC
  8
0
 10
       -3.249390
 20
      -20.232788
 30
        0.000000
 40
        5.926374
 50
      163.526604
 51
      181.441745
  0
ARC
  8
0
 10
       -6.501953
 20
      -19.270996
 30
        0.000000
 40
        2.534533
 50
      112.055312
 51
      163.527328
  0
ARC
  8
0
 10
       -6.082153
 20
      -20.307251
 30
        0.000000
 40
        3.652738
 50
       66.800025
 51
      112.054916
  0
ARC
  8
0
 10
       -5.436035
 20
      -18.799927
 30
        0.000000
 40
        2.012735
 50
       34.095817
 51
       66.799806
  0
ARC
  8
0
 10
       -6.231201
 20
      -19.338257
 30
        0.000000
 40
        2.972972
 50
      336.802039
 51
      394.095592
  0
ARC
  8
0
 10
       -6.753052
 20
      -19.114624
 30
        0.000000
 40
        3.540692
 50
      307.223305
 51
      336.800892
  0
ARC
  8
0
 10
      -14.058472
 20
       -9.498199
 30
        0.000000
 40
       15.617231
 50
      298.847144
 51
      307.223742
  0
ARC
  8
0
 10
        1.352905
 20
      -37.477295
 30
        0.000000
 40
       16.325487
 50
      118.846952
 51
      131.671423
  0
ARC
  8
0
 10
       -5.635315
 20
      -29.625854
 30
        0.000000
 40
        5.814523
 50
      131.671587
 51
      180.730777
  0
ARC
  8
0
 10
        5.863403
 20
      -20.451782
 30
        0.000000
 40
        5.511719
 50
       90.000000
 51
      138.366292
  0
ARC
  8
0
 10
        5.193054
 20
      -19.855835
 30
        0.000000
 40
        4.614863
 50
      138.366962
 51
      167.019030
  0
ARC
  8
0
 10
       16.663391
 20
      -22.500000
 30
        0.000000
 40
       16.385969
 50
      167.019071
 51
      180.000015
  0
ARC
  8
0
 10
       16.663391
 20
      -22.500000
 30
        0.000000
 40
       16.385986
 50
      180.000015
 51
      192.981158
  0
ARC
  8
0
 10
        5.193054
 20
      -25.144165
 30
        0.000000
 40
        4.614821
 50
      192.981062
 51
      221.633554
  0
ARC
  8
0
 10
        5.863403
 20
      -24.548340
 30
        0.000000
 40
        5.511728
 50
      221.633718
 51
      270.000000
  0
ARC
  8
0
 10
        5.863403
 20
      -24.548340
 30
        0.000000
 40
        5.511719
 50
      270.000000
 51
      318.366321
  0
ARC
  8
0
 10
        6.533752
 20
      -25.144165
 30
        0.000000
 40
        4.614863
 50
      318.366977
 51
      347.019045
  0
ARC
  8
0
 10
       -4.936584
 20
      -22.500000
 30
        0.000000
 40
       16.386028
 50
      347.019127
 51
      360.000000
  0
ARC
  8
0
 10
       -4.936584
 20
      -22.500000
 30
        0.000000
 40
       16.385986
 50
        0.000000
 51
       12.981132
  0
ARC
  8
0
 10
        6.533752
 20
      -19.855835
 30
        0.000000
 40
        4.614821
 50
       12.981041
 51
       41.633539
  0
ARC
  8
0
 10
        5.863403
 20
      -20.451782
 30
        0.000000
 40
        5.511728
 50
       41.633696
 51
       90.000000
  0
ARC
  8
0
 10
        5.863403
 20
      -19.855835
 30
        0.000000
 40
        3.202759
 50
       90.000000
 51
      140.194706
  0
ARC
  8
0
 10
        6.310303
 20
      -20.228271
 30
        0.000000
 40
        3.784520
 50
      140.194420
 51
      169.074520
  0
ARC
  8
0
 10
       18.078552
 20
      -22.500000
 30
        0.000000
 40
       15.769987
 50
      169.074165
 51
      180.000015
  0
ARC
  8
0
 10
       18.078552
 20
      -22.500000
 30
        0.000000
 40
       15.770020
 50
      180.000015
 51
      190.925831
  0
ARC
  8
0
 10
        6.310303
 20
      -24.771729
 30
        0.000000
 40
        3.784478
 50
      190.925572
 51
      219.806178
  0
ARC
  8
0
 10
        5.863403
 20
      -25.144165
 30
        0.000000
 40
        3.202727
 50
      219.806014
 51
      270.000000
  0
ARC
  8
0
 10
        5.863403
 20
      -25.144165
 30
        0.000000
 40
        3.202759
 50
      270.000000
 51
      320.194735
  0
ARC
  8
0
 10
        5.416504
 20
      -24.771729
 30
        0.000000
 40
        3.784520
 50
      320.194435
 51
      349.074549
  0
ARC
  8
0
 10
       -6.351807
 20
      -22.500000
 30
        0.000000
 40
       15.769987
 50
      349.074194
 51
      360.000000
  0
ARC
  8
0
 10
       -6.351807
 20
      -22.500000
 30
        0.000000
 40
       15.770020
 50
        0.000000
 51
       10.925808
  0
ARC
  8
0
 10
        5.416504
 20
      -20.228271
 30
        0.000000
 40
        3.784478
 50
       10.925558
 51
       39.806159
  0
ARC
  8
0
 10
        5.863403
 20
      -19.855835
 30
        0.000000
 40
        3.202727
 50
       39.805989
 51
       90.000000
  0
ARC
  8
0
 10
       35.000000
 20
      162.200012
 30
        0.000000
 40
        6.999984
 50
       73.742946
 51
      106.257315
  0
LINE
  8
0
 10
       37.750000
 20
      167.200012
 30
        0.000000
 11
       37.675873
 21
      168.047241
 31
        0.000000
  0
LINE
  8
0
 10
       32.250000
 20
      167.200012
 30
        0.000000
 11
       32.324127
 21
      168.047241
 31
        0.000000
  0
ARC
  8
0
 10
       36.679657
 20
      167.960083
 30
        0.000000
 40
        0.999991
 50
        5.000187
 51
       73.741402
  0
ARC
  8
0
 10
       33.320313
 20
      167.960083
 30
        0.000000
 40
        0.999995
 50
      106.254740
 51
      174.999805
  0
LINE
  8
0
 10
       37.999969
 20
      167.200012
 30
        0.000000
 11
       31.999969
 21
      167.200012
 31
        0.000000
  0
LINE
  8
0
 10
       31.999969
 20
      166.500000
 30
        0.000000
 11
       31.999969
 21
      167.200012
 31
        0.000000
  0
LINE
  8
0
 10
       37.999969
 20
      166.500000
 30
        0.000000
 11
       37.999969
 21
      167.200012
 31
        0.000000
  0
LINE
  8
0
 10
      -10.114990
 20
       58.639984
 30
        0.000000
 11
       -9.154999
 21
       58.639984
 31
        0.000000
  0
LINE
  8
0
 10
       -9.154999
 20
       58.639984
 30
        0.000000
 11
       -9.154999
 21
       55.999985
 31
        0.000000
  0
LINE
  8
0
 10
       -9.154999
 20
       55.999985
 30
        0.000000
 11
       -8.720001
 21
       55.999985
 31
        0.000000
  0
LINE
  8
0
 10
       -8.720001
 20
       55.999985
 30
        0.000000
 11
       -8.720001
 21
       58.639984
 31
        0.000000
  0
LINE
  8
0
 10
       -8.720001
 20
       58.639984
 30
        0.000000
 11
       -7.760010
 21
       58.639984
 31
        0.000000
  0
LINE
  8
0
 10
       -7.760010
 20
       58.639984
 30
        0.000000
 11
       -7.760010
 21
       58.999985
 31
        0.000000
  0
LINE
  8
0
 10
       -7.760010
 20
       58.999985
 30
        0.000000
 11
      -10.114990
 21
       58.999985
 31
        0.000000
  0
LINE
  8
0
 10
      -10.114990
 20
       58.999985
 30
        0.000000
 11
      -10.114990
 21
       58.639984
 31
        0.000000
  0
LINE
  8
0
 10
       -7.535004
 20
       58.999985
 30
        0.000000
 11
       -7.040009
 21
       58.999985
 31
        0.000000
  0
LINE
  8
0
 10
       -7.040009
 20
       58.999985
 30
        0.000000
 11
       -6.290009
 21
       57.842377
 31
        0.000000
  0
LINE
  8
0
 10
       -6.290009
 20
       57.842377
 30
        0.000000
 11
       -5.540009
 21
       58.999985
 31
        0.000000
  0
LINE
  8
0
 10
       -5.540009
 20
       58.999985
 30
        0.000000
 11
       -5.044983
 21
       58.999985
 31
        0.000000
  0
LINE
  8
0
 10
       -5.044983
 20
       58.999985
 30
        0.000000
 11
       -6.049988
 21
       57.529984
 31
        0.000000
  0
LINE
  8
0
 10
       -6.049988
 20
       57.529984
 30
        0.000000
 11
       -5.000000
 21
       55.999985
 31
        0.000000
  0
LINE
  8
0
 10
       -5.000000
 20
       55.999985
 30
        0.000000
 11
       -5.509979
 21
       55.999985
 31
        0.000000
  0
LINE
  8
0
 10
       -5.509979
 20
       55.999985
 30
        0.000000
 11
       -6.290009
 21
       57.202484
 31
        0.000000
  0
LINE
  8
0
 10
       -6.290009
 20
       57.202484
 30
        0.000000
 11
       -7.070007
 21
       55.999985
 31
        0.000000
  0
LINE
  8
0
 10
       -7.070007
 20
       55.999985
 30
        0.000000
 11
       -7.579987
 21
       55.999985
 31
        0.000000
  0
LINE
  8
0
 10
       -7.579987
 20
       55.999985
 30
        0.000000
 11
       -6.529999
 21
       57.529984
 31
        0.000000
  0
LINE
  8
0
 10
       -6.529999
 20
       57.529984
 30
        0.000000
 11
       -7.535004
 21
       58.999985
 31
        0.000000
  0
ARC
  8
0
 10
        6.470001
 20
       57.694977
 30
        0.000000
 40
        1.005003
 50
       45.904261
 51
      134.095730
  0
ARC
  8
0
 10
        6.438690
 20
       57.727295
 30
        0.000000
 40
        0.960005
 50
      134.095839
 51
      165.615426
  0
ARC
  8
0
 10
        7.325012
 20
       57.499985
 30
        0.000000
 40
        1.875008
 50
      165.614989
 51
      194.385021
  0
ARC
  8
0
 10
        6.438690
 20
       57.272675
 30
        0.000000
 40
        0.959998
 50
      194.384803
 51
      225.904171
  0
ARC
  8
0
 10
        6.470001
 20
       57.304993
 30
        0.000000
 40
        1.005003
 50
      225.904280
 51
      314.095759
  0
ARC
  8
0
 10
        5.614990
 20
       57.499985
 30
        0.000000
 40
        1.875008
 50
      345.615004
 51
      374.385008
  0
ARC
  8
0
 10
        6.501312
 20
       57.272675
 30
        0.000000
 40
        0.960005
 50
      314.095868
 51
      345.615441
  0
ARC
  8
0
 10
        6.501312
 20
       57.727295
 30
        0.000000
 40
        0.959998
 50
       14.384788
 51
       45.904145
  0
ARC
  8
0
 10
        6.516266
 20
       57.658173
 30
        0.000000
 40
        1.394998
 50
       20.580397
 51
       39.525360
  0
ARC
  8
0
 10
        6.470001
 20
       57.619980
 30
        0.000000
 40
        1.455001
 50
       39.524762
 51
      140.475222
  0
ARC
  8
0
 10
        6.423706
 20
       57.658173
 30
        0.000000
 40
        1.394995
 50
      140.474635
 51
      159.419598
  0
ARC
  8
0
 10
        6.845001
 20
       57.499985
 30
        0.000000
 40
        1.845013
 50
      159.419653
 51
      200.580357
  0
ARC
  8
0
 10
        6.423706
 20
       57.341797
 30
        0.000000
 40
        1.394998
 50
      200.580412
 51
      219.525375
  0
ARC
  8
0
 10
        6.470001
 20
       57.379990
 30
        0.000000
 40
        1.455001
 50
      219.524788
 51
      320.475237
  0
ARC
  8
0
 10
        6.516266
 20
       57.341797
 30
        0.000000
 40
        1.394995
 50
      320.474664
 51
      339.419613
  0
ARC
  8
0
 10
        6.095001
 20
       57.499985
 30
        0.000000
 40
        1.845013
 50
      339.419668
 51
      380.580335
  0
LINE
  8
0
 10
        8.420013
 20
       55.999985
 30
        0.000000
 11
        8.855011
 21
       55.999985
 31
        0.000000
  0
LINE
  8
0
 10
        8.855011
 20
       55.999985
 30
        0.000000
 11
        8.855011
 21
       57.049988
 31
        0.000000
  0
LINE
  8
0
 10
        8.855011
 20
       57.049988
 30
        0.000000
 11
        9.335022
 21
       57.499985
 31
        0.000000
  0
LINE
  8
0
 10
        9.335022
 20
       57.499985
 30
        0.000000
 11
       10.445007
 21
       55.999985
 31
        0.000000
  0
LINE
  8
0
 10
       10.445007
 20
       55.999985
 30
        0.000000
 11
       10.985016
 21
       55.999985
 31
        0.000000
  0
LINE
  8
0
 10
       10.985016
 20
       55.999985
 30
        0.000000
 11
        9.620026
 21
       57.769989
 31
        0.000000
  0
LINE
  8
0
 10
        9.620026
 20
       57.769989
 30
        0.000000
 11
       10.895020
 21
       58.999985
 31
        0.000000
  0
LINE
  8
0
 10
       10.895020
 20
       58.999985
 30
        0.000000
 11
       10.325012
 21
       58.999985
 31
        0.000000
  0
LINE
  8
0
 10
        8.855011
 20
       57.565842
 30
        0.000000
 11
        8.855011
 21
       58.999985
 31
        0.000000
  0
LINE
  8
0
 10
        8.855011
 20
       58.999985
 30
        0.000000
 11
        8.420013
 21
       58.999985
 31
        0.000000
  0
LINE
  8
0
 10
        8.420013
 20
       58.999985
 30
        0.000000
 11
        8.420013
 21
       55.999985
 31
        0.000000
  0
LINE
  8
0
 10
       10.325012
 20
       58.999985
 30
        0.000000
 11
        8.855011
 21
       57.565842
 31
        0.000000
  0
ARC
  8
0
 10
      170.200012
 20
      -42.500042
 30
        0.000000
 40
        6.999983
 50
      343.742985
 51
      376.257197
  0
LINE
  8
0
 10
      175.200012
 20
      -39.750042
 30
        0.000000
 11
      176.047241
 21
      -39.824169
 31
        0.000000
  0
LINE
  8
0
 10
      175.200012
 20
      -45.250042
 30
        0.000000
 11
      176.047241
 21
      -45.175915
 31
        0.000000
  0
ARC
  8
0
 10
      175.960083
 20
      -40.820370
 30
        0.000000
 40
        1.000012
 50
       16.258105
 51
       84.999924
  0
ARC
  8
0
 10
      175.960083
 20
      -44.179714
 30
        0.000000
 40
        0.999991
 50
      275.000195
 51
      343.745062
  0
LINE
  8
0
 10
      175.200012
 20
      -39.500057
 30
        0.000000
 11
      175.200012
 21
      -45.500057
 31
        0.000000
  0
LINE
  8
0
 10
      174.500000
 20
      -45.500057
 30
        0.000000
 11
      175.200012
 21
      -45.500057
 31
        0.000000
  0
LINE
  8
0
 10
      174.500000
 20
      -39.500057
 30
        0.000000
 11
      175.200012
 21
      -39.500057
 31
        0.000000
  0
ARC
  8
0
 10
      170.200012
 20
       42.500038
 30
        0.000000
 40
        6.999988
 50
      343.742876
 51
      376.257107
  0
LINE
  8
0
 10
      175.200012
 20
       39.750038
 30
        0.000000
 11
      176.047241
 21
       39.824165
 31
        0.000000
  0
LINE
  8
0
 10
      175.200012
 20
       45.250038
 30
        0.000000
 11
      176.047241
 21
       45.175911
 31
        0.000000
  0
ARC
  8
0
 10
      175.960083
 20
       40.820366
 30
        0.000000
 40
        0.999987
 50
      275.000223
 51
      343.741401
  0
ARC
  8
0
 10
      175.960083
 20
       44.179710
 30
        0.000000
 40
        0.999999
 50
       16.255589
 51
       84.999849
  0
LINE
  8
0
 10
      175.200012
 20
       39.500053
 30
        0.000000
 11
      175.200012
 21
       45.500053
 31
        0.000000
  0
LINE
  8
0
 10
      174.500000
 20
       45.500053
 30
        0.000000
 11
      175.200012
 21
       45.500053
 31
        0.000000
  0
LINE
  8
0
 10
      174.500000
 20
       39.500053
 30
        0.000000
 11
      175.200012
 21
       39.500053
 31
        0.000000
  0
LINE
  8
0
 10
      150.999939
 20
     -172.500000
 30
        0.000000
 11
      165.000000
 21
     -172.500000
 31
        0.000000
  0
LINE
  8
0
 10
      150.999939
 20
     -172.500000
 30
        0.000000
 11
      151.000000
 21
     -167.500000
 31
        0.000000
  0
LINE
  8
0
 10
      165.000000
 20
     -172.500000
 30
        0.000000
 11
      165.000000
 21
     -167.500000
 31
        0.000000
  0
LINE
  8
0
 10
      165.349976
 20
     -167.500000
 30
        0.000000
 11
      165.349976
 21
     -160.099976
 31
        0.000000
  0
LINE
  8
0
 10
      150.650024
 20
     -167.500000
 30
        0.000000
 11
      150.650024
 21
     -160.099976
 31
        0.000000
  0
LINE
  8
0
 10
      150.650024
 20
     -160.099976
 30
        0.000000
 11
      165.349976
 21
     -160.099976
 31
        0.000000
  0
LINE
  8
0
 10
      150.650024
 20
     -167.500000
 30
        0.000000
 11
      165.349976
 21
     -167.500000
 31
        0.000000
  0
LINE
  8
0
 10
      165.000000
 20
     -160.099976
 30
        0.000000
 11
      165.000000
 21
     -159.300049
 31
        0.000000
  0
LINE
  8
0
 10
      151.000000
 20
     -160.099976
 30
        0.000000
 11
      151.000000
 21
     -159.300049
 31
        0.000000
  0
LINE
  8
0
 10
      151.000000
 20
     -159.300049
 30
        0.000000
 11
      165.000000
 21
     -159.300049
 31
        0.000000
  0
LINE
  8
0
 10
      164.099976
 20
     -158.500000
 30
        0.000000
 11
      164.099976
 21
     -156.099976
 31
        0.000000
  0
LINE
  8
0
 10
      151.900024
 20
     -158.500000
 30
        0.000000
 11
      151.900024
 21
     -156.099976
 31
        0.000000
  0
LINE
  8
0
 10
      151.900024
 20
     -158.500000
 30
        0.000000
 11
      164.099976
 21
     -158.500000
 31
        0.000000
  0
LINE
  8
0
 10
      151.900024
 20
     -158.500000
 30
        0.000000
 11
      151.000000
 21
     -159.300049
 31
        0.000000
  0
LINE
  8
0
 10
      164.099976
 20
     -158.500000
 30
        0.000000
 11
      165.000000
 21
     -159.300049
 31
        0.000000
  0
LINE
  8
0
 10
      153.500000
 20
     -130.000000
 30
        0.000000
 11
      151.849976
 21
     -142.500000
 31
        0.000000
  0
LINE
  8
0
 10
      162.500000
 20
     -130.000000
 30
        0.000000
 11
      164.150024
 21
     -142.500000
 31
        0.000000
  0
LINE
  8
0
 10
      151.250000
 20
     -152.599976
 30
        0.000000
 11
      151.900024
 21
     -156.099976
 31
        0.000000
  0
LINE
  8
0
 10
      164.099976
 20
     -156.099976
 30
        0.000000
 11
      164.750000
 21
     -152.599976
 31
        0.000000
  0
LINE
  8
0
 10
      151.900024
 20
     -156.099976
 30
        0.000000
 11
      164.099976
 21
     -156.099976
 31
        0.000000
  0
LINE
  8
0
 10
      151.250000
 20
     -142.500000
 30
        0.000000
 11
      164.750000
 21
     -142.500000
 31
        0.000000
  0
LINE
  8
0
 10
      153.500000
 20
     -130.000000
 30
        0.000000
 11
      162.500000
 21
     -130.000000
 31
        0.000000
  0
LINE
  8
0
 10
      151.250000
 20
     -152.599976
 30
        0.000000
 11
      164.750000
 21
     -152.599976
 31
        0.000000
  0
LINE
  8
0
 10
      164.750000
 20
     -152.599976
 30
        0.000000
 11
      164.750000
 21
     -142.500000
 31
        0.000000
  0
LINE
  8
0
 10
      151.250000
 20
     -152.599976
 30
        0.000000
 11
      151.250000
 21
     -142.500000
 31
        0.000000
  0
ARC
  8
0
 10
      -37.500000
 20
      166.500000
 30
        0.000000
 40
        2.000000
 50
       90.000000
 51
      180.000015
  0
LINE
  8
0
 10
      -37.500000
 20
      168.500000
 30
        0.000000
 11
      -32.500000
 21
      168.500000
 31
        0.000000
  0
ARC
  8
0
 10
      -32.500000
 20
      166.500000
 30
        0.000000
 40
        2.000000
 50
        0.000000
 51
       90.000000
  0
ARC
  8
0
 10
      -35.000000
 20
      162.171432
 30
        0.000000
 40
        6.778566
 50
       69.005438
 51
      110.994550
  0
TEXT
  8
0
 62
  2
 10
     -141.398612
 20
      161.058046
 30
        0.000000
 40
        5.845000
  1
ＤＳ２０ＡＫ
 50
        0.000000
 41
        1.000000
 51
        0.000000
  7
BIGFONT
  0
LINE
  8
0
 10
        3.700012
 20
       64.095337
 30
        0.000000
 11
        3.700012
 21
       61.999981
 31
        0.000000
  0
ENDSEC
  0
EOF
