  0
SECTION
  2
HEADER
  9
$ACADVER
  1
AC1006
  9
$INSBASE
 10
0.0
 20
0.0
 30
0.0
  9
$EXTMIN
 10
     -125.812256
 20
     -125.812256
  9
$EXTMAX
 10
      162.815109
 20
       54.749573
  9
$LIMMIN
 10
     -125.812256
 20
     -125.812256
  9
$LIMMAX
 10
      162.815109
 20
       54.749573
  9
$VIEWCTR
 10
       18.501427
 20
       18.501427
  9
$ORTHOMODE
 70
     0
  9
$ANGBASE
 50
0.0
  9
$ANGDIR
 70
     0
  9
$SPLINETYPE
 70
     6
  9
$SPLINESEGS
 70
     8
9
$DIMASZ
 40
        6.000000
9
$DIMEXE
 40
        1.500000
9
$DIMEXO
 40
        2.500000
9
$DIMTXT
 40
        5.000000
9
$DIMGAP
 40
        1.500000
9
$DIMTAD
 70
1
9
$DIMTIH
 70
0
9
$DIMTOH
 70
0
  0
ENDSEC
  0
SECTION
  2
TABLES
  0
TABLE
  2
LTYPE
 70
     5
  0
LTYPE
  2
CONTINUOUS
 70
    64
  3
SOLID LINE
 72
    65
 73
     0
 40
0.0
  0
LTYPE
  2
DASHED
 70
    64
  3
-- -- -- -- -- --
 72
    65
 73
     2
 40
  0.75  
 49
  0.50  
 49
 -0.25  
  0
LTYPE
  2
DOT
 70
    64
  3
....................
 72
    65
 73
     2
 40
  0.25  
 49
  0.02  
 49
 -0.23  
  0
LTYPE
  2
CENTER
 70
    64
  3
-- . -- . -- . -- .
 72
    65
 73
    4
 40
  2.00  
 49
  1.25  
 49
 -0.25  
 49
  0.25  
 49
 -0.25  
  0
LTYPE
  2
PHANTOM
 70
    64
  3
-- .. -- .. -- ..
 72
    65
 73
    6
 40
  2.50  
 49
  1.25  
 49
 -0.25  
 49
  0.25  
 49
 -0.25  
 49
  0.25  
 49
 -0.25  
  0
ENDTAB
  0
TABLE
  2
LAYER
 70
     1
  0
LAYER
  2
0
 70
    64
 62
     3
  6
CONTINUOUS
  0
ENDTAB
  0
TABLE
  2
STYLE
 70
     2
  0
STYLE
  2
STANDARD
 70
    64
 40
0.0
 41
1.0
 50
0.0
 71
     0
 42
5.0
  3
ROMANS
  4
BIGFONT
  0
STYLE
  2
BIGFONT
 70
    64
 40
0.0
 41
1.0
 50
0.0
 71
     0
 42
5.0
  3
ROMANS
  4
BIGFONT
  0
ENDTAB
  0
TABLE
  2
VIEW
 70
     0
  0
ENDTAB
  0
TABLE
  2
UCS
 70
     0
  0
ENDTAB
  0
TABLE
  2
DWGMGR
 70
     0
  0
ENDTAB
  0
ENDSEC
  0
SECTION
  2
BLOCKS
  0
BLOCK
  8
0
  2
BLK0001
 70
    64
 10
        0.000000
 20
        0.000000
  0
TEXT
  8
0
 62
  2
 10
       -3.964286
 20
      -50.846073
 30
        0.000000
 40
        2.505000
  1
１４０
 50
        0.000000
 41
        1.000000
 51
        0.000000
  7
BIGFONT
  0
LINE
  8
0
 62
  2
 10
      -69.999969
 20
      -41.000000
 30
        0.000000
 11
      -69.999969
 21
      -52.246075
 31
        0.000000
  0
LINE
  8
0
 62
  2
 10
       69.999969
 20
      -41.000000
 30
        0.000000
 11
       69.999969
 21
      -52.246075
 31
        0.000000
  0
LINE
  8
0
 62
  2
 10
      -66.999969
 20
      -51.074837
 30
        0.000000
 11
      -69.999969
 21
      -51.546074
 31
        0.000000
  0
LINE
  8
0
 62
  2
 10
      -69.999969
 20
      -51.546074
 30
        0.000000
 11
      -66.999969
 21
      -52.017311
 31
        0.000000
  0
LINE
  8
0
 62
  2
 10
       66.999969
 20
      -52.017311
 30
        0.000000
 11
       69.999969
 21
      -51.546074
 31
        0.000000
  0
LINE
  8
0
 62
  2
 10
       69.999969
 20
      -51.546074
 30
        0.000000
 11
       66.999969
 21
      -51.074837
 31
        0.000000
  0
LINE
  8
0
 62
  2
 10
      -69.999969
 20
      -51.546074
 30
        0.000000
 11
       69.999969
 21
      -51.546074
 31
        0.000000
  0
ENDBLK
  0
BLOCK
  8
0
  2
BLK0002
 70
    64
 10
        0.000000
 20
        0.000000
  0
TEXT
  8
0
 62
  2
 10
       85.454170
 20
       -2.464286
 30
        0.000000
 40
        2.505000
  1
８０
 50
       90.000000
 41
        1.000000
 51
        0.000000
  7
BIGFONT
  0
LINE
  8
0
 62
  2
 10
       70.999969
 20
      -40.000000
 30
        0.000000
 11
       86.854172
 21
      -40.000000
 31
        0.000000
  0
LINE
  8
0
 62
  2
 10
       70.999969
 20
       40.000000
 30
        0.000000
 11
       86.854172
 21
       40.000000
 31
        0.000000
  0
LINE
  8
0
 62
  2
 10
       85.682938
 20
      -37.000000
 30
        0.000000
 11
       86.154175
 21
      -40.000000
 31
        0.000000
  0
LINE
  8
0
 62
  2
 10
       86.154175
 20
      -40.000000
 30
        0.000000
 11
       86.625412
 21
      -37.000000
 31
        0.000000
  0
LINE
  8
0
 62
  2
 10
       86.625412
 20
       37.000000
 30
        0.000000
 11
       86.154175
 21
       40.000000
 31
        0.000000
  0
LINE
  8
0
 62
  2
 10
       86.154175
 20
       40.000000
 30
        0.000000
 11
       85.682938
 21
       37.000000
 31
        0.000000
  0
LINE
  8
0
 62
  2
 10
       86.154175
 20
      -40.000000
 30
        0.000000
 11
       86.154175
 21
       40.000000
 31
        0.000000
  0
ENDBLK
  0
BLOCK
  8
0
  2
BLK0003
 70
    64
 10
        0.000000
 20
        0.000000
  0
TEXT
  8
0
 62
  2
 10
      126.750603
 20
      -50.846073
 30
        0.000000
 40
        2.505000
  1
６１．２
 50
        0.000000
 41
        1.000000
 51
        0.000000
  7
BIGFONT
  0
LINE
  8
0
 62
  2
 10
      101.614670
 20
       -1.000284
 30
        0.000000
 11
      101.614670
 21
      -52.246075
 31
        0.000000
  0
LINE
  8
0
 62
  2
 10
      162.815109
 20
      -44.499611
 30
        0.000000
 11
      162.815109
 21
      -52.246075
 31
        0.000000
  0
LINE
  8
0
 62
  2
 10
      104.614670
 20
      -51.074837
 30
        0.000000
 11
      101.614670
 21
      -51.546074
 31
        0.000000
  0
LINE
  8
0
 62
  2
 10
      101.614670
 20
      -51.546074
 30
        0.000000
 11
      104.614670
 21
      -52.017311
 31
        0.000000
  0
LINE
  8
0
 62
  2
 10
      159.815109
 20
      -52.017311
 30
        0.000000
 11
      162.815109
 21
      -51.546074
 31
        0.000000
  0
LINE
  8
0
 62
  2
 10
      162.815109
 20
      -51.546074
 30
        0.000000
 11
      159.815109
 21
      -51.074837
 31
        0.000000
  0
LINE
  8
0
 62
  2
 10
      101.614670
 20
      -51.546074
 30
        0.000000
 11
      162.815109
 21
      -51.546074
 31
        0.000000
  0
ENDBLK
  0
ENDSEC
  0
SECTION
  2
ENTITIES
  0
LINE
  8
0
 10
      -69.999969
 20
      -37.500000
 30
        0.000000
 11
      -69.999969
 21
       37.500000
 31
        0.000000
  0
ARC
  8
0
 10
      -67.499969
 20
      -37.500000
 30
        0.000000
 40
        2.500000
 50
      180.000015
 51
      270.000000
  0
TEXT
  8
0
 62
  2
 10
       -8.422631
 20
       54.749571
 30
        0.000000
 40
        3.340000
  1
ＤＳ３０Ｄ
 50
        0.000000
 41
        1.000000
 51
        0.000000
  7
BIGFONT
  0
INSERT
  8
0
 62
  5
  2
BLK0001
 10
        0.000000
 20
        0.000000
  0
INSERT
  8
0
 62
  5
  2
BLK0002
 10
        0.000000
 20
        0.000000
  0
INSERT
  8
0
 62
  5
  2
BLK0003
 10
        0.000000
 20
        0.000000
  0
LINE
  8
0
 10
       67.499969
 20
       40.000000
 30
        0.000000
 11
      -67.499969
 21
       40.000000
 31
        0.000000
  0
ARC
  8
0
 10
       67.499969
 20
       37.500000
 30
        0.000000
 40
        2.500000
 50
        0.000000
 51
       90.000000
  0
LINE
  8
0
 10
       69.999969
 20
      -37.500000
 30
        0.000000
 11
       69.999969
 21
       37.500000
 31
        0.000000
  0
LINE
  8
0
 10
       67.499969
 20
      -40.000000
 30
        0.000000
 11
      -67.499969
 21
      -40.000000
 31
        0.000000
  0
ARC
  8
0
 10
       67.499969
 20
      -37.500000
 30
        0.000000
 40
        2.500000
 50
      270.000000
 51
      360.000000
  0
CIRCLE
  8
0
 10
      -61.999969
 20
       33.899902
 30
        0.000000
 40
        4.000000
  0
LINE
  8
0
 10
      -56.399872
 20
       29.899902
 30
        0.000000
 11
       57.400116
 21
       29.899902
 31
        0.000000
  0
CIRCLE
  8
0
 10
      -50.700165
 20
      -34.200195
 30
        0.000000
 40
        2.750000
  0
LINE
  8
0
 10
      -51.654266
 20
      -32.679688
 30
        0.000000
 11
      -52.220184
 21
      -33.245361
 31
        0.000000
  0
ARC
  8
0
 10
      -50.700165
 20
      -32.220215
 30
        0.000000
 40
        1.000066
 50
      225.009908
 51
      315.009911
  0
ARC
  8
0
 10
      -48.719696
 20
      -34.200195
 30
        0.000000
 40
        0.999893
 50
      134.999993
 51
      225.019798
  0
ARC
  8
0
 10
      -50.700165
 20
      -36.179932
 30
        0.000000
 40
        1.000066
 50
       45.009889
 51
      134.995048
  0
ARC
  8
0
 10
      -52.679657
 20
      -34.200195
 30
        0.000000
 40
        0.999893
 50
      315.000021
 51
      405.004944
  0
LINE
  8
0
 10
      -51.654266
 20
      -32.679688
 30
        0.000000
 11
      -51.407196
 21
      -32.927246
 31
        0.000000
  0
LINE
  8
0
 10
      -52.220184
 20
      -33.245361
 30
        0.000000
 11
      -51.972626
 21
      -33.492920
 31
        0.000000
  0
LINE
  8
0
 10
      -49.179657
 20
      -35.154785
 30
        0.000000
 11
      -49.745087
 21
      -35.720459
 31
        0.000000
  0
LINE
  8
0
 10
      -49.427216
 20
      -34.907227
 30
        0.000000
 11
      -49.179657
 21
      -35.154785
 31
        0.000000
  0
LINE
  8
0
 10
      -49.993134
 20
      -35.472900
 30
        0.000000
 11
      -49.745087
 21
      -35.720459
 31
        0.000000
  0
LINE
  8
0
 10
      -51.972626
 20
      -34.907227
 30
        0.000000
 11
      -52.906219
 21
      -35.841064
 31
        0.000000
  0
LINE
  8
0
 10
      -51.407196
 20
      -35.472900
 30
        0.000000
 11
      -52.340790
 21
      -36.406738
 31
        0.000000
  0
LINE
  8
0
 10
      -49.058563
 20
      -31.993408
 30
        0.000000
 11
      -49.993134
 21
      -32.927246
 31
        0.000000
  0
LINE
  8
0
 10
      -48.493134
 20
      -32.559082
 30
        0.000000
 11
      -49.427216
 21
      -33.492920
 31
        0.000000
  0
LINE
  8
0
 10
      -47.349579
 20
      -30.850098
 30
        0.000000
 11
      -47.349579
 21
      -37.550049
 31
        0.000000
  0
LINE
  8
0
 10
      -54.049774
 20
      -37.550049
 30
        0.000000
 11
      -47.349579
 21
      -37.550049
 31
        0.000000
  0
LINE
  8
0
 10
      -45.150360
 20
      -37.550293
 30
        0.000000
 11
      -38.450165
 21
      -37.550293
 31
        0.000000
  0
LINE
  8
0
 10
      -38.450165
 20
      -30.850342
 30
        0.000000
 11
      -38.450165
 21
      -37.550293
 31
        0.000000
  0
CIRCLE
  8
0
 10
      -41.799774
 20
      -34.200439
 30
        0.000000
 40
        2.750000
  0
LINE
  8
0
 10
      -42.754852
 20
      -32.680176
 30
        0.000000
 11
      -43.320282
 21
      -33.245850
 31
        0.000000
  0
ARC
  8
0
 10
      -41.799774
 20
      -32.220459
 30
        0.000000
 40
        1.000066
 50
      225.009908
 51
      315.029692
  0
ARC
  8
0
 10
      -39.820282
 20
      -34.200439
 30
        0.000000
 40
        0.999893
 50
      134.999993
 51
      225.019798
  0
ARC
  8
0
 10
      -41.799774
 20
      -36.180420
 30
        0.000000
 40
        1.000066
 50
       45.009889
 51
      134.995048
  0
ARC
  8
0
 10
      -43.779755
 20
      -34.200439
 30
        0.000000
 40
        0.999893
 50
      315.000021
 51
      405.004944
  0
LINE
  8
0
 10
      -42.754852
 20
      -32.680176
 30
        0.000000
 11
      -42.506805
 21
      -32.927734
 31
        0.000000
  0
LINE
  8
0
 10
      -43.320282
 20
      -33.245850
 30
        0.000000
 11
      -43.072723
 21
      -33.493408
 31
        0.000000
  0
LINE
  8
0
 10
      -40.279755
 20
      -35.155029
 30
        0.000000
 11
      -40.845673
 21
      -35.720703
 31
        0.000000
  0
LINE
  8
0
 10
      -40.527313
 20
      -34.907471
 30
        0.000000
 11
      -40.279755
 21
      -35.155029
 31
        0.000000
  0
LINE
  8
0
 10
      -41.092743
 20
      -35.473145
 30
        0.000000
 11
      -40.845673
 21
      -35.720703
 31
        0.000000
  0
LINE
  8
0
 10
      -43.072723
 20
      -34.907471
 30
        0.000000
 11
      -44.006805
 21
      -35.841553
 31
        0.000000
  0
LINE
  8
0
 10
      -42.506805
 20
      -35.473145
 30
        0.000000
 11
      -43.440887
 21
      -36.407227
 31
        0.000000
  0
LINE
  8
0
 10
      -40.159149
 20
      -31.993652
 30
        0.000000
 11
      -41.092743
 21
      -32.927734
 31
        0.000000
  0
LINE
  8
0
 10
      -39.593231
 20
      -32.559326
 30
        0.000000
 11
      -40.527313
 21
      -33.493408
 31
        0.000000
  0
LINE
  8
0
 10
      -45.150360
 20
      -30.850342
 30
        0.000000
 11
      -38.450165
 21
      -30.850342
 31
        0.000000
  0
LINE
  8
0
 10
      -45.150360
 20
      -30.850342
 30
        0.000000
 11
      -45.150360
 21
      -37.550293
 31
        0.000000
  0
LINE
  8
0
 10
      -36.249969
 20
      -37.550781
 30
        0.000000
 11
      -29.549774
 21
      -37.550781
 31
        0.000000
  0
LINE
  8
0
 10
      -29.549774
 20
      -30.850830
 30
        0.000000
 11
      -29.549774
 21
      -37.550781
 31
        0.000000
  0
CIRCLE
  8
0
 10
      -32.900360
 20
      -34.200684
 30
        0.000000
 40
        2.750000
  0
LINE
  8
0
 10
      -33.854462
 20
      -32.680420
 30
        0.000000
 11
      -34.419891
 21
      -33.246094
 31
        0.000000
  0
ARC
  8
0
 10
      -32.900360
 20
      -32.220947
 30
        0.000000
 40
        0.999893
 50
      225.000017
 51
      315.019801
  0
ARC
  8
0
 10
      -30.919891
 20
      -34.200684
 30
        0.000000
 40
        0.999893
 50
      134.999993
 51
      225.019798
  0
ARC
  8
0
 10
      -32.900360
 20
      -36.180664
 30
        0.000000
 40
        0.999893
 50
       44.999999
 51
      134.999993
  0
ARC
  8
0
 10
      -34.879852
 20
      -34.200684
 30
        0.000000
 40
        0.999893
 50
      315.000021
 51
      405.004944
  0
LINE
  8
0
 10
      -33.854462
 20
      -32.680420
 30
        0.000000
 11
      -33.607391
 21
      -32.927979
 31
        0.000000
  0
LINE
  8
0
 10
      -34.419891
 20
      -33.246094
 30
        0.000000
 11
      -34.172821
 21
      -33.493652
 31
        0.000000
  0
LINE
  8
0
 10
      -31.379852
 20
      -35.155273
 30
        0.000000
 11
      -31.945282
 21
      -35.720947
 31
        0.000000
  0
LINE
  8
0
 10
      -31.626923
 20
      -34.907959
 30
        0.000000
 11
      -31.379852
 21
      -35.155273
 31
        0.000000
  0
LINE
  8
0
 10
      -32.192841
 20
      -35.473633
 30
        0.000000
 11
      -31.945282
 21
      -35.720947
 31
        0.000000
  0
LINE
  8
0
 10
      -34.172821
 20
      -34.907959
 30
        0.000000
 11
      -35.106415
 21
      -35.841797
 31
        0.000000
  0
LINE
  8
0
 10
      -33.607391
 20
      -35.473633
 30
        0.000000
 11
      -34.540985
 21
      -36.407471
 31
        0.000000
  0
LINE
  8
0
 10
      -31.258759
 20
      -31.994141
 30
        0.000000
 11
      -32.192841
 21
      -32.927979
 31
        0.000000
  0
LINE
  8
0
 10
      -30.693329
 20
      -32.559814
 30
        0.000000
 11
      -31.626923
 21
      -33.493652
 31
        0.000000
  0
LINE
  8
0
 10
      -36.249969
 20
      -30.850830
 30
        0.000000
 11
      -29.549774
 21
      -30.850830
 31
        0.000000
  0
LINE
  8
0
 10
      -36.249969
 20
      -30.850830
 30
        0.000000
 11
      -36.249969
 21
      -37.550781
 31
        0.000000
  0
LINE
  8
0
 10
      -23.849579
 20
      -37.551025
 30
        0.000000
 11
      -17.149872
 21
      -37.551025
 31
        0.000000
  0
LINE
  8
0
 10
      -17.149872
 20
      -30.851074
 30
        0.000000
 11
      -17.149872
 21
      -37.551025
 31
        0.000000
  0
CIRCLE
  8
0
 10
      -20.499969
 20
      -34.201172
 30
        0.000000
 40
        2.750000
  0
LINE
  8
0
 10
      -21.454559
 20
      -32.680908
 30
        0.000000
 11
      -22.020477
 21
      -33.246582
 31
        0.000000
  0
ARC
  8
0
 10
      -20.499969
 20
      -32.221191
 30
        0.000000
 40
        1.000066
 50
      225.009908
 51
      315.029692
  0
ARC
  8
0
 10
      -18.519989
 20
      -34.201172
 30
        0.000000
 40
        0.999893
 50
      134.999993
 51
      225.019798
  0
ARC
  8
0
 10
      -20.499969
 20
      -36.180908
 30
        0.000000
 40
        1.000066
 50
       45.009889
 51
      134.995048
  0
ARC
  8
0
 10
      -22.479462
 20
      -34.201172
 30
        0.000000
 40
        0.999893
 50
      315.000021
 51
      404.999999
  0
LINE
  8
0
 10
      -21.454559
 20
      -32.680908
 30
        0.000000
 11
      -21.207001
 21
      -32.928223
 31
        0.000000
  0
LINE
  8
0
 10
      -22.020477
 20
      -33.246582
 30
        0.000000
 11
      -21.772430
 21
      -33.493896
 31
        0.000000
  0
LINE
  8
0
 10
      -18.979462
 20
      -35.155762
 30
        0.000000
 11
      -19.545380
 21
      -35.721436
 31
        0.000000
  0
LINE
  8
0
 10
      -19.227509
 20
      -34.908203
 30
        0.000000
 11
      -18.979462
 21
      -35.155762
 31
        0.000000
  0
LINE
  8
0
 10
      -19.792938
 20
      -35.473877
 30
        0.000000
 11
      -19.545380
 21
      -35.721436
 31
        0.000000
  0
LINE
  8
0
 10
      -21.772430
 20
      -34.908203
 30
        0.000000
 11
      -22.706512
 21
      -35.842041
 31
        0.000000
  0
LINE
  8
0
 10
      -21.207001
 20
      -35.473877
 30
        0.000000
 11
      -22.140594
 21
      -36.407715
 31
        0.000000
  0
LINE
  8
0
 10
      -18.858856
 20
      -31.994385
 30
        0.000000
 11
      -19.792938
 21
      -32.928223
 31
        0.000000
  0
LINE
  8
0
 10
      -18.292938
 20
      -32.560059
 30
        0.000000
 11
      -19.227509
 21
      -33.493896
 31
        0.000000
  0
LINE
  8
0
 10
      -23.849579
 20
      -30.851074
 30
        0.000000
 11
      -17.149872
 21
      -30.851074
 31
        0.000000
  0
LINE
  8
0
 10
      -23.849579
 20
      -30.851074
 30
        0.000000
 11
      -23.849579
 21
      -37.551025
 31
        0.000000
  0
LINE
  8
0
 10
      -14.950165
 20
      -37.551514
 30
        0.000000
 11
       -8.249969
 21
      -37.551514
 31
        0.000000
  0
LINE
  8
0
 10
       -8.249969
 20
      -30.851563
 30
        0.000000
 11
       -8.249969
 21
      -37.551514
 31
        0.000000
  0
CIRCLE
  8
0
 10
      -11.600067
 20
      -34.201416
 30
        0.000000
 40
        2.750000
  0
LINE
  8
0
 10
      -12.554657
 20
      -32.681152
 30
        0.000000
 11
      -13.120087
 21
      -33.246826
 31
        0.000000
  0
ARC
  8
0
 10
      -11.600067
 20
      -32.221436
 30
        0.000000
 40
        1.000066
 50
      225.009908
 51
      315.009911
  0
ARC
  8
0
 10
       -9.620087
 20
      -34.201416
 30
        0.000000
 40
        0.999893
 50
      134.999993
 51
      225.019798
  0
ARC
  8
0
 10
      -11.600067
 20
      -36.181396
 30
        0.000000
 40
        1.000066
 50
       45.009889
 51
      134.995048
  0
ARC
  8
0
 10
      -13.580048
 20
      -34.201416
 30
        0.000000
 40
        0.999893
 50
      315.000021
 51
      405.004944
  0
LINE
  8
0
 10
      -12.554657
 20
      -32.681152
 30
        0.000000
 11
      -12.307098
 21
      -32.928711
 31
        0.000000
  0
LINE
  8
0
 10
      -13.120087
 20
      -33.246826
 30
        0.000000
 11
      -12.873016
 21
      -33.494385
 31
        0.000000
  0
LINE
  8
0
 10
      -10.080048
 20
      -35.156006
 30
        0.000000
 11
      -10.645477
 21
      -35.721680
 31
        0.000000
  0
LINE
  8
0
 10
      -10.327118
 20
      -34.908447
 30
        0.000000
 11
      -10.080048
 21
      -35.156006
 31
        0.000000
  0
LINE
  8
0
 10
      -10.892548
 20
      -35.474121
 30
        0.000000
 11
      -10.645477
 21
      -35.721680
 31
        0.000000
  0
LINE
  8
0
 10
      -12.873016
 20
      -34.908447
 30
        0.000000
 11
      -13.806610
 21
      -35.842529
 31
        0.000000
  0
LINE
  8
0
 10
      -12.307098
 20
      -35.474121
 30
        0.000000
 11
      -13.241180
 21
      -36.408203
 31
        0.000000
  0
LINE
  8
0
 10
       -9.958954
 20
      -31.994629
 30
        0.000000
 11
      -10.892548
 21
      -32.928711
 31
        0.000000
  0
LINE
  8
0
 10
       -9.393524
 20
      -32.560303
 30
        0.000000
 11
      -10.327118
 21
      -33.494385
 31
        0.000000
  0
LINE
  8
0
 10
      -14.950165
 20
      -30.851563
 30
        0.000000
 11
       -8.249969
 21
      -30.851563
 31
        0.000000
  0
LINE
  8
0
 10
      -14.950165
 20
      -30.851563
 30
        0.000000
 11
      -14.950165
 21
      -37.551514
 31
        0.000000
  0
LINE
  8
0
 10
       -6.049774
 20
      -37.551758
 30
        0.000000
 11
        0.649933
 21
      -37.551758
 31
        0.000000
  0
LINE
  8
0
 10
        0.649933
 20
      -30.851807
 30
        0.000000
 11
        0.649933
 21
      -37.551758
 31
        0.000000
  0
CIRCLE
  8
0
 10
       -2.700165
 20
      -34.201904
 30
        0.000000
 40
        2.750000
  0
LINE
  8
0
 10
       -3.654755
 20
      -32.681396
 30
        0.000000
 11
       -4.220673
 21
      -33.247070
 31
        0.000000
  0
ARC
  8
0
 10
       -2.700165
 20
      -32.221924
 30
        0.000000
 40
        1.000066
 50
      225.009908
 51
      315.029692
  0
ARC
  8
0
 10
       -0.720184
 20
      -34.201904
 30
        0.000000
 40
        0.999893
 50
      134.999993
 51
      225.019798
  0
ARC
  8
0
 10
       -2.700165
 20
      -36.181641
 30
        0.000000
 40
        1.000066
 50
       45.009889
 51
      134.995048
  0
ARC
  8
0
 10
       -4.679657
 20
      -34.201904
 30
        0.000000
 40
        0.999893
 50
      315.000021
 51
      405.004944
  0
LINE
  8
0
 10
       -3.654755
 20
      -32.681396
 30
        0.000000
 11
       -3.407196
 21
      -32.928955
 31
        0.000000
  0
LINE
  8
0
 10
       -4.220673
 20
      -33.247070
 30
        0.000000
 11
       -3.972626
 21
      -33.494629
 31
        0.000000
  0
LINE
  8
0
 10
       -1.179657
 20
      -35.156494
 30
        0.000000
 11
       -1.745575
 21
      -35.722168
 31
        0.000000
  0
LINE
  8
0
 10
       -1.427704
 20
      -34.908936
 30
        0.000000
 11
       -1.179657
 21
      -35.156494
 31
        0.000000
  0
LINE
  8
0
 10
       -1.993134
 20
      -35.474609
 30
        0.000000
 11
       -1.745575
 21
      -35.722168
 31
        0.000000
  0
LINE
  8
0
 10
       -3.972626
 20
      -34.908936
 30
        0.000000
 11
       -4.906708
 21
      -35.842773
 31
        0.000000
  0
LINE
  8
0
 10
       -3.407196
 20
      -35.474609
 30
        0.000000
 11
       -4.340790
 21
      -36.408447
 31
        0.000000
  0
LINE
  8
0
 10
       -1.059052
 20
      -31.995117
 30
        0.000000
 11
       -1.993134
 21
      -32.928955
 31
        0.000000
  0
LINE
  8
0
 10
       -0.493134
 20
      -32.560791
 30
        0.000000
 11
       -1.427704
 21
      -33.494629
 31
        0.000000
  0
LINE
  8
0
 10
       -6.049774
 20
      -30.851807
 30
        0.000000
 11
        0.649933
 21
      -30.851807
 31
        0.000000
  0
LINE
  8
0
 10
       -6.049774
 20
      -30.851807
 30
        0.000000
 11
       -6.049774
 21
      -37.551758
 31
        0.000000
  0
LINE
  8
0
 10
        2.849640
 20
      -37.552002
 30
        0.000000
 11
        9.549835
 21
      -37.552002
 31
        0.000000
  0
LINE
  8
0
 10
        9.549835
 20
      -30.852051
 30
        0.000000
 11
        9.549835
 21
      -37.552002
 31
        0.000000
  0
CIRCLE
  8
0
 10
        6.199738
 20
      -34.202148
 30
        0.000000
 40
        2.750000
  0
LINE
  8
0
 10
        5.245148
 20
      -32.681885
 30
        0.000000
 11
        4.679718
 21
      -33.247559
 31
        0.000000
  0
ARC
  8
0
 10
        6.199738
 20
      -32.222168
 30
        0.000000
 40
        0.999893
 50
      225.000017
 51
      315.019801
  0
ARC
  8
0
 10
        8.179718
 20
      -34.202148
 30
        0.000000
 40
        0.999893
 50
      134.999993
 51
      225.019798
  0
ARC
  8
0
 10
        6.199738
 20
      -36.181885
 30
        0.000000
 40
        0.999893
 50
       44.999999
 51
      134.999993
  0
ARC
  8
0
 10
        4.219757
 20
      -34.202148
 30
        0.000000
 40
        0.999893
 50
      315.000021
 51
      405.004944
  0
LINE
  8
0
 10
        5.245148
 20
      -32.681885
 30
        0.000000
 11
        5.492706
 21
      -32.929199
 31
        0.000000
  0
LINE
  8
0
 10
        4.679718
 20
      -33.247559
 30
        0.000000
 11
        4.926788
 21
      -33.494873
 31
        0.000000
  0
LINE
  8
0
 10
        7.719757
 20
      -35.156738
 30
        0.000000
 11
        7.154327
 21
      -35.722412
 31
        0.000000
  0
LINE
  8
0
 10
        7.472687
 20
      -34.909180
 30
        0.000000
 11
        7.719757
 21
      -35.156738
 31
        0.000000
  0
LINE
  8
0
 10
        6.907257
 20
      -35.474854
 30
        0.000000
 11
        7.154327
 21
      -35.722412
 31
        0.000000
  0
LINE
  8
0
 10
        4.926788
 20
      -34.909180
 30
        0.000000
 11
        3.993195
 21
      -35.843018
 31
        0.000000
  0
LINE
  8
0
 10
        5.492706
 20
      -35.474854
 30
        0.000000
 11
        4.558624
 21
      -36.408691
 31
        0.000000
  0
LINE
  8
0
 10
        7.840851
 20
      -31.995361
 30
        0.000000
 11
        6.907257
 21
      -32.929199
 31
        0.000000
  0
LINE
  8
0
 10
        8.406281
 20
      -32.561035
 30
        0.000000
 11
        7.472687
 21
      -33.494873
 31
        0.000000
  0
LINE
  8
0
 10
        2.849640
 20
      -30.852051
 30
        0.000000
 11
        9.549835
 21
      -30.852051
 31
        0.000000
  0
LINE
  8
0
 10
        2.849640
 20
      -30.852051
 30
        0.000000
 11
        2.849640
 21
      -37.552002
 31
        0.000000
  0
LINE
  8
0
 10
       11.750031
 20
      -37.552490
 30
        0.000000
 11
       18.449738
 21
      -37.552490
 31
        0.000000
  0
LINE
  8
0
 10
       18.449738
 20
      -30.852539
 30
        0.000000
 11
       18.449738
 21
      -37.552490
 31
        0.000000
  0
CIRCLE
  8
0
 10
       15.099640
 20
      -34.202393
 30
        0.000000
 40
        2.750000
  0
LINE
  8
0
 10
       14.145050
 20
      -32.682129
 30
        0.000000
 11
       13.579132
 21
      -33.247803
 31
        0.000000
  0
ARC
  8
0
 10
       15.099640
 20
      -32.222656
 30
        0.000000
 40
        1.000066
 50
      225.009908
 51
      315.029692
  0
ARC
  8
0
 10
       17.079620
 20
      -34.202393
 30
        0.000000
 40
        0.999893
 50
      134.999993
 51
      225.019798
  0
ARC
  8
0
 10
       15.099640
 20
      -36.182373
 30
        0.000000
 40
        1.000066
 50
       45.009889
 51
      134.995048
  0
ARC
  8
0
 10
       13.120148
 20
      -34.202393
 30
        0.000000
 40
        0.999893
 50
      315.000021
 51
      404.999999
  0
LINE
  8
0
 10
       14.145050
 20
      -32.682129
 30
        0.000000
 11
       14.392609
 21
      -32.929688
 31
        0.000000
  0
LINE
  8
0
 10
       13.579132
 20
      -33.247803
 30
        0.000000
 11
       13.827179
 21
      -33.495361
 31
        0.000000
  0
LINE
  8
0
 10
       16.620148
 20
      -35.156982
 30
        0.000000
 11
       16.054230
 21
      -35.722656
 31
        0.000000
  0
LINE
  8
0
 10
       16.372101
 20
      -34.909668
 30
        0.000000
 11
       16.620148
 21
      -35.156982
 31
        0.000000
  0
LINE
  8
0
 10
       15.806671
 20
      -35.475342
 30
        0.000000
 11
       16.054230
 21
      -35.722656
 31
        0.000000
  0
LINE
  8
0
 10
       13.827179
 20
      -34.909668
 30
        0.000000
 11
       12.893097
 21
      -35.843506
 31
        0.000000
  0
LINE
  8
0
 10
       14.392609
 20
      -35.475342
 30
        0.000000
 11
       13.459015
 21
      -36.409180
 31
        0.000000
  0
LINE
  8
0
 10
       16.740753
 20
      -31.995850
 30
        0.000000
 11
       15.806671
 21
      -32.929688
 31
        0.000000
  0
LINE
  8
0
 10
       17.306671
 20
      -32.561523
 30
        0.000000
 11
       16.372101
 21
      -33.495361
 31
        0.000000
  0
LINE
  8
0
 10
       11.750031
 20
      -30.852539
 30
        0.000000
 11
       18.449738
 21
      -30.852539
 31
        0.000000
  0
LINE
  8
0
 10
       11.750031
 20
      -30.852539
 30
        0.000000
 11
       11.750031
 21
      -37.552490
 31
        0.000000
  0
LINE
  8
0
 10
       20.649445
 20
      -37.552734
 30
        0.000000
 11
       27.349640
 21
      -37.552734
 31
        0.000000
  0
LINE
  8
0
 10
       27.349640
 20
      -30.852783
 30
        0.000000
 11
       27.349640
 21
      -37.552734
 31
        0.000000
  0
CIRCLE
  8
0
 10
       23.999542
 20
      -34.202881
 30
        0.000000
 40
        2.750000
  0
LINE
  8
0
 10
       23.044952
 20
      -32.682373
 30
        0.000000
 11
       22.479523
 21
      -33.248047
 31
        0.000000
  0
ARC
  8
0
 10
       23.999542
 20
      -32.222900
 30
        0.000000
 40
        1.000066
 50
      225.009908
 51
      315.009911
  0
ARC
  8
0
 10
       25.979523
 20
      -34.202881
 30
        0.000000
 40
        0.999893
 50
      134.999993
 51
      225.019798
  0
ARC
  8
0
 10
       23.999542
 20
      -36.182617
 30
        0.000000
 40
        1.000066
 50
       45.009889
 51
      134.995048
  0
ARC
  8
0
 10
       22.019562
 20
      -34.202881
 30
        0.000000
 40
        0.999893
 50
      315.000021
 51
      405.004944
  0
LINE
  8
0
 10
       23.044952
 20
      -32.682373
 30
        0.000000
 11
       23.292511
 21
      -32.929932
 31
        0.000000
  0
LINE
  8
0
 10
       22.479523
 20
      -33.248047
 30
        0.000000
 11
       22.726593
 21
      -33.495605
 31
        0.000000
  0
LINE
  8
0
 10
       25.519562
 20
      -35.157471
 30
        0.000000
 11
       24.954132
 21
      -35.723145
 31
        0.000000
  0
LINE
  8
0
 10
       25.272491
 20
      -34.909912
 30
        0.000000
 11
       25.519562
 21
      -35.157471
 31
        0.000000
  0
LINE
  8
0
 10
       24.707062
 20
      -35.475586
 30
        0.000000
 11
       24.954132
 21
      -35.723145
 31
        0.000000
  0
LINE
  8
0
 10
       22.726593
 20
      -34.909912
 30
        0.000000
 11
       21.792999
 21
      -35.843750
 31
        0.000000
  0
LINE
  8
0
 10
       23.292511
 20
      -35.475586
 30
        0.000000
 11
       22.358429
 21
      -36.409424
 31
        0.000000
  0
LINE
  8
0
 10
       25.640656
 20
      -31.996094
 30
        0.000000
 11
       24.707062
 21
      -32.929932
 31
        0.000000
  0
LINE
  8
0
 10
       26.206085
 20
      -32.561768
 30
        0.000000
 11
       25.272491
 21
      -33.495605
 31
        0.000000
  0
LINE
  8
0
 10
       20.649445
 20
      -30.852783
 30
        0.000000
 11
       27.349640
 21
      -30.852783
 31
        0.000000
  0
LINE
  8
0
 10
       20.649445
 20
      -30.852783
 30
        0.000000
 11
       20.649445
 21
      -37.552734
 31
        0.000000
  0
LINE
  8
0
 10
       29.549835
 20
      -37.552979
 30
        0.000000
 11
       36.249542
 21
      -37.552979
 31
        0.000000
  0
LINE
  8
0
 10
       36.249542
 20
      -30.853027
 30
        0.000000
 11
       36.249542
 21
      -37.552979
 31
        0.000000
  0
CIRCLE
  8
0
 10
       32.899445
 20
      -34.203125
 30
        0.000000
 40
        2.750000
  0
LINE
  8
0
 10
       31.944855
 20
      -32.682861
 30
        0.000000
 11
       31.378937
 21
      -33.248535
 31
        0.000000
  0
ARC
  8
0
 10
       32.899445
 20
      -32.223145
 30
        0.000000
 40
        1.000066
 50
      225.009908
 51
      315.029692
  0
ARC
  8
0
 10
       34.879425
 20
      -34.203125
 30
        0.000000
 40
        0.999893
 50
      134.999993
 51
      225.019798
  0
ARC
  8
0
 10
       32.899445
 20
      -36.183105
 30
        0.000000
 40
        1.000066
 50
       45.009889
 51
      134.995048
  0
ARC
  8
0
 10
       30.919952
 20
      -34.203125
 30
        0.000000
 40
        0.999893
 50
      315.000021
 51
      405.004944
  0
LINE
  8
0
 10
       31.944855
 20
      -32.682861
 30
        0.000000
 11
       32.192413
 21
      -32.930420
 31
        0.000000
  0
LINE
  8
0
 10
       31.378937
 20
      -33.248535
 30
        0.000000
 11
       31.626984
 21
      -33.496094
 31
        0.000000
  0
LINE
  8
0
 10
       34.419952
 20
      -35.157715
 30
        0.000000
 11
       33.854034
 21
      -35.723389
 31
        0.000000
  0
LINE
  8
0
 10
       34.171906
 20
      -34.910156
 30
        0.000000
 11
       34.419952
 21
      -35.157715
 31
        0.000000
  0
LINE
  8
0
 10
       33.606476
 20
      -35.475830
 30
        0.000000
 11
       33.854034
 21
      -35.723389
 31
        0.000000
  0
LINE
  8
0
 10
       31.626984
 20
      -34.910156
 30
        0.000000
 11
       30.692902
 21
      -35.844238
 31
        0.000000
  0
LINE
  8
0
 10
       32.192413
 20
      -35.475830
 30
        0.000000
 11
       31.258820
 21
      -36.409912
 31
        0.000000
  0
LINE
  8
0
 10
       34.540558
 20
      -31.996338
 30
        0.000000
 11
       33.606476
 21
      -32.930420
 31
        0.000000
  0
LINE
  8
0
 10
       35.106476
 20
      -32.562012
 30
        0.000000
 11
       34.171906
 21
      -33.496094
 31
        0.000000
  0
LINE
  8
0
 10
       29.549835
 20
      -30.853027
 30
        0.000000
 11
       36.249542
 21
      -30.853027
 31
        0.000000
  0
LINE
  8
0
 10
       29.549835
 20
      -30.853027
 30
        0.000000
 11
       29.549835
 21
      -37.552979
 31
        0.000000
  0
LINE
  8
0
 10
       38.449249
 20
      -37.553467
 30
        0.000000
 11
       45.149445
 21
      -37.553467
 31
        0.000000
  0
LINE
  8
0
 10
       45.149445
 20
      -30.853516
 30
        0.000000
 11
       45.149445
 21
      -37.553467
 31
        0.000000
  0
CIRCLE
  8
0
 10
       41.799347
 20
      -34.203369
 30
        0.000000
 40
        2.750000
  0
LINE
  8
0
 10
       40.844757
 20
      -32.683105
 30
        0.000000
 11
       40.279327
 21
      -33.248779
 31
        0.000000
  0
ARC
  8
0
 10
       41.799347
 20
      -32.223633
 30
        0.000000
 40
        0.999893
 50
      225.000017
 51
      315.019801
  0
ARC
  8
0
 10
       43.779327
 20
      -34.203369
 30
        0.000000
 40
        0.999893
 50
      134.999993
 51
      225.019798
  0
ARC
  8
0
 10
       41.799347
 20
      -36.183350
 30
        0.000000
 40
        0.999893
 50
       44.999999
 51
      134.999993
  0
ARC
  8
0
 10
       39.819366
 20
      -34.203369
 30
        0.000000
 40
        0.999893
 50
      315.000021
 51
      405.004944
  0
LINE
  8
0
 10
       40.844757
 20
      -32.683105
 30
        0.000000
 11
       41.092316
 21
      -32.930664
 31
        0.000000
  0
LINE
  8
0
 10
       40.279327
 20
      -33.248779
 30
        0.000000
 11
       40.526398
 21
      -33.496338
 31
        0.000000
  0
LINE
  8
0
 10
       43.319366
 20
      -35.157959
 30
        0.000000
 11
       42.753937
 21
      -35.723633
 31
        0.000000
  0
LINE
  8
0
 10
       43.072296
 20
      -34.910645
 30
        0.000000
 11
       43.319366
 21
      -35.157959
 31
        0.000000
  0
LINE
  8
0
 10
       42.506866
 20
      -35.476318
 30
        0.000000
 11
       42.753937
 21
      -35.723633
 31
        0.000000
  0
LINE
  8
0
 10
       40.526398
 20
      -34.910645
 30
        0.000000
 11
       39.592804
 21
      -35.844482
 31
        0.000000
  0
LINE
  8
0
 10
       41.092316
 20
      -35.476318
 30
        0.000000
 11
       40.158234
 21
      -36.410156
 31
        0.000000
  0
LINE
  8
0
 10
       43.440460
 20
      -31.996826
 30
        0.000000
 11
       42.506866
 21
      -32.930664
 31
        0.000000
  0
LINE
  8
0
 10
       44.005890
 20
      -32.562500
 30
        0.000000
 11
       43.072296
 21
      -33.496338
 31
        0.000000
  0
LINE
  8
0
 10
       38.449249
 20
      -30.853516
 30
        0.000000
 11
       45.149445
 21
      -30.853516
 31
        0.000000
  0
LINE
  8
0
 10
       38.449249
 20
      -30.853516
 30
        0.000000
 11
       38.449249
 21
      -37.553467
 31
        0.000000
  0
LINE
  8
0
 10
       47.349640
 20
      -37.553711
 30
        0.000000
 11
       54.049286
 21
      -37.553711
 31
        0.000000
  0
CIRCLE
  8
0
 10
       50.699249
 20
      -34.203857
 30
        0.000000
 40
        2.750000
  0
LINE
  8
0
 10
       49.744659
 20
      -32.683594
 30
        0.000000
 11
       49.178741
 21
      -33.249268
 31
        0.000000
  0
ARC
  8
0
 10
       50.699249
 20
      -32.223877
 30
        0.000000
 40
        1.000066
 50
      225.009908
 51
      315.029692
  0
ARC
  8
0
 10
       52.679230
 20
      -34.203857
 30
        0.000000
 40
        0.999893
 50
      134.999993
 51
      225.019798
  0
ARC
  8
0
 10
       50.699249
 20
      -36.183594
 30
        0.000000
 40
        1.000066
 50
       45.009889
 51
      134.995048
  0
ARC
  8
0
 10
       48.719757
 20
      -34.203857
 30
        0.000000
 40
        0.999893
 50
      315.000021
 51
      404.999999
  0
LINE
  8
0
 10
       49.744659
 20
      -32.683594
 30
        0.000000
 11
       49.992218
 21
      -32.930908
 31
        0.000000
  0
LINE
  8
0
 10
       49.178741
 20
      -33.249268
 30
        0.000000
 11
       49.426788
 21
      -33.496582
 31
        0.000000
  0
LINE
  8
0
 10
       52.219757
 20
      -35.158447
 30
        0.000000
 11
       51.653839
 21
      -35.724121
 31
        0.000000
  0
LINE
  8
0
 10
       51.971710
 20
      -34.910889
 30
        0.000000
 11
       52.219757
 21
      -35.158447
 31
        0.000000
  0
LINE
  8
0
 10
       51.406281
 20
      -35.476563
 30
        0.000000
 11
       51.653839
 21
      -35.724121
 31
        0.000000
  0
LINE
  8
0
 10
       49.426788
 20
      -34.910889
 30
        0.000000
 11
       48.492706
 21
      -35.844727
 31
        0.000000
  0
LINE
  8
0
 10
       49.992218
 20
      -35.476563
 30
        0.000000
 11
       49.058624
 21
      -36.410400
 31
        0.000000
  0
LINE
  8
0
 10
       52.340363
 20
      -31.997070
 30
        0.000000
 11
       51.406281
 21
      -32.930908
 31
        0.000000
  0
LINE
  8
0
 10
       52.906281
 20
      -32.562744
 30
        0.000000
 11
       51.971710
 21
      -33.496582
 31
        0.000000
  0
LINE
  8
0
 10
       47.349640
 20
      -30.853760
 30
        0.000000
 11
       47.349640
 21
      -37.553711
 31
        0.000000
  0
CIRCLE
  8
0
 10
      -50.700165
 20
       34.199951
 30
        0.000000
 40
        2.750000
  0
LINE
  8
0
 10
      -51.654266
 20
       32.679688
 30
        0.000000
 11
      -52.220184
 21
       33.245361
 31
        0.000000
  0
ARC
  8
0
 10
      -50.700165
 20
       32.219971
 30
        0.000000
 40
        1.000066
 50
       45.009889
 51
      134.995048
  0
ARC
  8
0
 10
      -48.719696
 20
       34.199951
 30
        0.000000
 40
        0.999893
 50
      134.999993
 51
      225.019798
  0
ARC
  8
0
 10
      -50.700165
 20
       36.179932
 30
        0.000000
 40
        1.000066
 50
      225.009908
 51
      315.009911
  0
ARC
  8
0
 10
      -52.679657
 20
       34.199951
 30
        0.000000
 40
        0.999893
 50
      315.000021
 51
      404.999999
  0
LINE
  8
0
 10
      -51.654266
 20
       32.679688
 30
        0.000000
 11
      -51.407196
 21
       32.927002
 31
        0.000000
  0
LINE
  8
0
 10
      -52.220184
 20
       33.245361
 30
        0.000000
 11
      -51.972626
 21
       33.492676
 31
        0.000000
  0
LINE
  8
0
 10
      -49.179657
 20
       35.154541
 30
        0.000000
 11
      -49.745087
 21
       35.720215
 31
        0.000000
  0
LINE
  8
0
 10
      -49.427216
 20
       34.906982
 30
        0.000000
 11
      -49.179657
 21
       35.154541
 31
        0.000000
  0
LINE
  8
0
 10
      -49.993134
 20
       35.472656
 30
        0.000000
 11
      -49.745087
 21
       35.720215
 31
        0.000000
  0
LINE
  8
0
 10
      -51.972626
 20
       34.906982
 30
        0.000000
 11
      -52.906219
 21
       35.841064
 31
        0.000000
  0
LINE
  8
0
 10
      -51.407196
 20
       35.472656
 30
        0.000000
 11
      -52.340790
 21
       36.406738
 31
        0.000000
  0
LINE
  8
0
 10
      -49.058563
 20
       31.993164
 30
        0.000000
 11
      -49.993134
 21
       32.927002
 31
        0.000000
  0
LINE
  8
0
 10
      -48.493134
 20
       32.558838
 30
        0.000000
 11
      -49.427216
 21
       33.492676
 31
        0.000000
  0
LINE
  8
0
 10
      -47.349579
 20
       30.849854
 30
        0.000000
 11
      -47.349579
 21
       37.549805
 31
        0.000000
  0
LINE
  8
0
 10
      -54.049774
 20
       37.549805
 30
        0.000000
 11
      -47.349579
 21
       37.549805
 31
        0.000000
  0
LINE
  8
0
 10
      -45.150360
 20
       37.550293
 30
        0.000000
 11
      -38.450165
 21
       37.550293
 31
        0.000000
  0
LINE
  8
0
 10
      -38.450165
 20
       30.850342
 30
        0.000000
 11
      -38.450165
 21
       37.550293
 31
        0.000000
  0
CIRCLE
  8
0
 10
      -41.799774
 20
       34.200195
 30
        0.000000
 40
        2.750000
  0
LINE
  8
0
 10
      -42.754852
 20
       32.679932
 30
        0.000000
 11
      -43.320282
 21
       33.245605
 31
        0.000000
  0
ARC
  8
0
 10
      -41.799774
 20
       32.220459
 30
        0.000000
 40
        0.999893
 50
       44.999999
 51
      134.999993
  0
ARC
  8
0
 10
      -39.820282
 20
       34.200195
 30
        0.000000
 40
        0.999893
 50
      134.999993
 51
      225.019798
  0
ARC
  8
0
 10
      -41.799774
 20
       36.180176
 30
        0.000000
 40
        1.000066
 50
      225.009908
 51
      315.029692
  0
ARC
  8
0
 10
      -43.779755
 20
       34.200195
 30
        0.000000
 40
        0.999893
 50
      315.000021
 51
      404.999999
  0
LINE
  8
0
 10
      -42.754852
 20
       32.679932
 30
        0.000000
 11
      -42.506805
 21
       32.927490
 31
        0.000000
  0
LINE
  8
0
 10
      -43.320282
 20
       33.245605
 30
        0.000000
 11
      -43.072723
 21
       33.493164
 31
        0.000000
  0
LINE
  8
0
 10
      -40.279755
 20
       35.154785
 30
        0.000000
 11
      -40.845673
 21
       35.720459
 31
        0.000000
  0
LINE
  8
0
 10
      -40.527313
 20
       34.907471
 30
        0.000000
 11
      -40.279755
 21
       35.154785
 31
        0.000000
  0
LINE
  8
0
 10
      -41.092743
 20
       35.473145
 30
        0.000000
 11
      -40.845673
 21
       35.720459
 31
        0.000000
  0
LINE
  8
0
 10
      -43.072723
 20
       34.907471
 30
        0.000000
 11
      -44.006805
 21
       35.841309
 31
        0.000000
  0
LINE
  8
0
 10
      -42.506805
 20
       35.473145
 30
        0.000000
 11
      -43.440887
 21
       36.406982
 31
        0.000000
  0
LINE
  8
0
 10
      -40.159149
 20
       31.993652
 30
        0.000000
 11
      -41.092743
 21
       32.927490
 31
        0.000000
  0
LINE
  8
0
 10
      -39.593231
 20
       32.559326
 30
        0.000000
 11
      -40.527313
 21
       33.493164
 31
        0.000000
  0
LINE
  8
0
 10
      -45.150360
 20
       30.850342
 30
        0.000000
 11
      -38.450165
 21
       30.850342
 31
        0.000000
  0
LINE
  8
0
 10
      -45.150360
 20
       30.850342
 30
        0.000000
 11
      -45.150360
 21
       37.550293
 31
        0.000000
  0
LINE
  8
0
 10
      -36.249969
 20
       37.550537
 30
        0.000000
 11
      -29.549774
 21
       37.550537
 31
        0.000000
  0
LINE
  8
0
 10
      -29.549774
 20
       30.850586
 30
        0.000000
 11
      -29.549774
 21
       37.550537
 31
        0.000000
  0
CIRCLE
  8
0
 10
      -32.900360
 20
       34.200684
 30
        0.000000
 40
        2.750000
  0
LINE
  8
0
 10
      -33.854462
 20
       32.680176
 30
        0.000000
 11
      -34.419891
 21
       33.245850
 31
        0.000000
  0
ARC
  8
0
 10
      -32.900360
 20
       32.220703
 30
        0.000000
 40
        1.000066
 50
       45.009889
 51
      134.995048
  0
ARC
  8
0
 10
      -30.919891
 20
       34.200684
 30
        0.000000
 40
        0.999893
 50
      134.999993
 51
      225.019798
  0
ARC
  8
0
 10
      -32.900360
 20
       36.180420
 30
        0.000000
 40
        1.000066
 50
      225.009908
 51
      315.009911
  0
ARC
  8
0
 10
      -34.879852
 20
       34.200684
 30
        0.000000
 40
        0.999893
 50
      315.000021
 51
      405.004944
  0
LINE
  8
0
 10
      -33.854462
 20
       32.680176
 30
        0.000000
 11
      -33.607391
 21
       32.927734
 31
        0.000000
  0
LINE
  8
0
 10
      -34.419891
 20
       33.245850
 30
        0.000000
 11
      -34.172821
 21
       33.493408
 31
        0.000000
  0
LINE
  8
0
 10
      -31.379852
 20
       35.155273
 30
        0.000000
 11
      -31.945282
 21
       35.720947
 31
        0.000000
  0
LINE
  8
0
 10
      -31.626923
 20
       34.907715
 30
        0.000000
 11
      -31.379852
 21
       35.155273
 31
        0.000000
  0
LINE
  8
0
 10
      -32.192841
 20
       35.473389
 30
        0.000000
 11
      -31.945282
 21
       35.720947
 31
        0.000000
  0
LINE
  8
0
 10
      -34.172821
 20
       34.907715
 30
        0.000000
 11
      -35.106415
 21
       35.841553
 31
        0.000000
  0
LINE
  8
0
 10
      -33.607391
 20
       35.473389
 30
        0.000000
 11
      -34.540985
 21
       36.407227
 31
        0.000000
  0
LINE
  8
0
 10
      -31.258759
 20
       31.993896
 30
        0.000000
 11
      -32.192841
 21
       32.927734
 31
        0.000000
  0
LINE
  8
0
 10
      -30.693329
 20
       32.559570
 30
        0.000000
 11
      -31.626923
 21
       33.493408
 31
        0.000000
  0
LINE
  8
0
 10
      -36.249969
 20
       30.850586
 30
        0.000000
 11
      -29.549774
 21
       30.850586
 31
        0.000000
  0
LINE
  8
0
 10
      -36.249969
 20
       30.850586
 30
        0.000000
 11
      -36.249969
 21
       37.550537
 31
        0.000000
  0
LINE
  8
0
 10
      -23.849579
 20
       37.551025
 30
        0.000000
 11
      -17.149872
 21
       37.551025
 31
        0.000000
  0
LINE
  8
0
 10
      -17.149872
 20
       30.850830
 30
        0.000000
 11
      -17.149872
 21
       37.551025
 31
        0.000000
  0
CIRCLE
  8
0
 10
      -20.499969
 20
       34.200928
 30
        0.000000
 40
        2.750000
  0
LINE
  8
0
 10
      -21.454559
 20
       32.680664
 30
        0.000000
 11
      -22.020477
 21
       33.246338
 31
        0.000000
  0
ARC
  8
0
 10
      -20.499969
 20
       32.220947
 30
        0.000000
 40
        0.999893
 50
       44.999999
 51
      134.999993
  0
ARC
  8
0
 10
      -18.519989
 20
       34.200928
 30
        0.000000
 40
        0.999893
 50
      134.999993
 51
      225.019798
  0
ARC
  8
0
 10
      -20.499969
 20
       36.180908
 30
        0.000000
 40
        1.000066
 50
      225.009908
 51
      315.009911
  0
ARC
  8
0
 10
      -22.479462
 20
       34.200928
 30
        0.000000
 40
        0.999893
 50
      315.000021
 51
      404.999999
  0
LINE
  8
0
 10
      -21.454559
 20
       32.680664
 30
        0.000000
 11
      -21.207001
 21
       32.928223
 31
        0.000000
  0
LINE
  8
0
 10
      -22.020477
 20
       33.246338
 30
        0.000000
 11
      -21.772430
 21
       33.493896
 31
        0.000000
  0
LINE
  8
0
 10
      -18.979462
 20
       35.155518
 30
        0.000000
 11
      -19.545380
 21
       35.721191
 31
        0.000000
  0
LINE
  8
0
 10
      -19.227509
 20
       34.907959
 30
        0.000000
 11
      -18.979462
 21
       35.155518
 31
        0.000000
  0
LINE
  8
0
 10
      -19.792938
 20
       35.473633
 30
        0.000000
 11
      -19.545380
 21
       35.721191
 31
        0.000000
  0
LINE
  8
0
 10
      -21.772430
 20
       34.907959
 30
        0.000000
 11
      -22.706512
 21
       35.842041
 31
        0.000000
  0
LINE
  8
0
 10
      -21.207001
 20
       35.473633
 30
        0.000000
 11
      -22.140594
 21
       36.407715
 31
        0.000000
  0
LINE
  8
0
 10
      -18.858856
 20
       31.994141
 30
        0.000000
 11
      -19.792938
 21
       32.928223
 31
        0.000000
  0
LINE
  8
0
 10
      -18.292938
 20
       32.559814
 30
        0.000000
 11
      -19.227509
 21
       33.493896
 31
        0.000000
  0
LINE
  8
0
 10
      -23.849579
 20
       30.850830
 30
        0.000000
 11
      -17.149872
 21
       30.850830
 31
        0.000000
  0
LINE
  8
0
 10
      -23.849579
 20
       30.850830
 30
        0.000000
 11
      -23.849579
 21
       37.551025
 31
        0.000000
  0
LINE
  8
0
 10
      -14.950165
 20
       37.551270
 30
        0.000000
 11
       -8.249969
 21
       37.551270
 31
        0.000000
  0
LINE
  8
0
 10
       -8.249969
 20
       30.851318
 30
        0.000000
 11
       -8.249969
 21
       37.551270
 31
        0.000000
  0
CIRCLE
  8
0
 10
      -11.600067
 20
       34.201172
 30
        0.000000
 40
        2.750000
  0
LINE
  8
0
 10
      -12.554657
 20
       32.680908
 30
        0.000000
 11
      -13.120087
 21
       33.246582
 31
        0.000000
  0
ARC
  8
0
 10
      -11.600067
 20
       32.221436
 30
        0.000000
 40
        0.999893
 50
       44.999999
 51
      134.999993
  0
ARC
  8
0
 10
       -9.620087
 20
       34.201172
 30
        0.000000
 40
        0.999893
 50
      134.999993
 51
      225.019798
  0
ARC
  8
0
 10
      -11.600067
 20
       36.181152
 30
        0.000000
 40
        1.000066
 50
      225.009908
 51
      315.009911
  0
ARC
  8
0
 10
      -13.580048
 20
       34.201172
 30
        0.000000
 40
        0.999893
 50
      315.000021
 51
      404.999999
  0
LINE
  8
0
 10
      -12.554657
 20
       32.680908
 30
        0.000000
 11
      -12.307098
 21
       32.928467
 31
        0.000000
  0
LINE
  8
0
 10
      -13.120087
 20
       33.246582
 30
        0.000000
 11
      -12.873016
 21
       33.494141
 31
        0.000000
  0
LINE
  8
0
 10
      -10.080048
 20
       35.155762
 30
        0.000000
 11
      -10.645477
 21
       35.721680
 31
        0.000000
  0
LINE
  8
0
 10
      -10.327118
 20
       34.908447
 30
        0.000000
 11
      -10.080048
 21
       35.155762
 31
        0.000000
  0
LINE
  8
0
 10
      -10.892548
 20
       35.474121
 30
        0.000000
 11
      -10.645477
 21
       35.721680
 31
        0.000000
  0
LINE
  8
0
 10
      -12.873016
 20
       34.908447
 30
        0.000000
 11
      -13.806610
 21
       35.842285
 31
        0.000000
  0
LINE
  8
0
 10
      -12.307098
 20
       35.474121
 30
        0.000000
 11
      -13.241180
 21
       36.407959
 31
        0.000000
  0
LINE
  8
0
 10
       -9.958954
 20
       31.994629
 30
        0.000000
 11
      -10.892548
 21
       32.928467
 31
        0.000000
  0
LINE
  8
0
 10
       -9.393524
 20
       32.560303
 30
        0.000000
 11
      -10.327118
 21
       33.494141
 31
        0.000000
  0
LINE
  8
0
 10
      -14.950165
 20
       30.851318
 30
        0.000000
 11
       -8.249969
 21
       30.851318
 31
        0.000000
  0
LINE
  8
0
 10
      -14.950165
 20
       30.851318
 30
        0.000000
 11
      -14.950165
 21
       37.551270
 31
        0.000000
  0
LINE
  8
0
 10
       -6.049774
 20
       37.551514
 30
        0.000000
 11
        0.649933
 21
       37.551514
 31
        0.000000
  0
LINE
  8
0
 10
        0.649933
 20
       30.851563
 30
        0.000000
 11
        0.649933
 21
       37.551514
 31
        0.000000
  0
CIRCLE
  8
0
 10
       -2.700165
 20
       34.201660
 30
        0.000000
 40
        2.750000
  0
LINE
  8
0
 10
       -3.654755
 20
       32.681396
 30
        0.000000
 11
       -4.220673
 21
       33.247070
 31
        0.000000
  0
ARC
  8
0
 10
       -2.700165
 20
       32.221680
 30
        0.000000
 40
        0.999893
 50
       44.999999
 51
      134.999993
  0
ARC
  8
0
 10
       -0.720184
 20
       34.201660
 30
        0.000000
 40
        0.999893
 50
      134.999993
 51
      225.019798
  0
ARC
  8
0
 10
       -2.700165
 20
       36.181396
 30
        0.000000
 40
        1.000066
 50
      225.009908
 51
      315.029692
  0
ARC
  8
0
 10
       -4.679657
 20
       34.201660
 30
        0.000000
 40
        0.999893
 50
      315.000021
 51
      404.999999
  0
LINE
  8
0
 10
       -3.654755
 20
       32.681396
 30
        0.000000
 11
       -3.407196
 21
       32.928711
 31
        0.000000
  0
LINE
  8
0
 10
       -4.220673
 20
       33.247070
 30
        0.000000
 11
       -3.972626
 21
       33.494385
 31
        0.000000
  0
LINE
  8
0
 10
       -1.179657
 20
       35.156250
 30
        0.000000
 11
       -1.745575
 21
       35.721924
 31
        0.000000
  0
LINE
  8
0
 10
       -1.427704
 20
       34.908691
 30
        0.000000
 11
       -1.179657
 21
       35.156250
 31
        0.000000
  0
LINE
  8
0
 10
       -1.993134
 20
       35.474365
 30
        0.000000
 11
       -1.745575
 21
       35.721924
 31
        0.000000
  0
LINE
  8
0
 10
       -3.972626
 20
       34.908691
 30
        0.000000
 11
       -4.906708
 21
       35.842529
 31
        0.000000
  0
LINE
  8
0
 10
       -3.407196
 20
       35.474365
 30
        0.000000
 11
       -4.340790
 21
       36.408203
 31
        0.000000
  0
LINE
  8
0
 10
       -1.059052
 20
       31.994873
 30
        0.000000
 11
       -1.993134
 21
       32.928711
 31
        0.000000
  0
LINE
  8
0
 10
       -0.493134
 20
       32.560547
 30
        0.000000
 11
       -1.427704
 21
       33.494385
 31
        0.000000
  0
LINE
  8
0
 10
       -6.049774
 20
       30.851563
 30
        0.000000
 11
        0.649933
 21
       30.851563
 31
        0.000000
  0
LINE
  8
0
 10
       -6.049774
 20
       30.851563
 30
        0.000000
 11
       -6.049774
 21
       37.551514
 31
        0.000000
  0
LINE
  8
0
 10
        2.849640
 20
       37.552002
 30
        0.000000
 11
        9.549835
 21
       37.552002
 31
        0.000000
  0
LINE
  8
0
 10
        9.549835
 20
       30.852051
 30
        0.000000
 11
        9.549835
 21
       37.552002
 31
        0.000000
  0
CIRCLE
  8
0
 10
        6.199738
 20
       34.201904
 30
        0.000000
 40
        2.750000
  0
LINE
  8
0
 10
        5.245148
 20
       32.681641
 30
        0.000000
 11
        4.679718
 21
       33.247314
 31
        0.000000
  0
ARC
  8
0
 10
        6.199738
 20
       32.221924
 30
        0.000000
 40
        0.999893
 50
       44.999999
 51
      134.999993
  0
ARC
  8
0
 10
        8.179718
 20
       34.201904
 30
        0.000000
 40
        0.999893
 50
      134.999993
 51
      225.019798
  0
ARC
  8
0
 10
        6.199738
 20
       36.181885
 30
        0.000000
 40
        1.000066
 50
      225.009908
 51
      315.029692
  0
ARC
  8
0
 10
        4.219757
 20
       34.201904
 30
        0.000000
 40
        0.999893
 50
      315.000021
 51
      404.999999
  0
LINE
  8
0
 10
        5.245148
 20
       32.681641
 30
        0.000000
 11
        5.492706
 21
       32.929199
 31
        0.000000
  0
LINE
  8
0
 10
        4.679718
 20
       33.247314
 30
        0.000000
 11
        4.926788
 21
       33.494873
 31
        0.000000
  0
LINE
  8
0
 10
        7.719757
 20
       35.156494
 30
        0.000000
 11
        7.154327
 21
       35.722168
 31
        0.000000
  0
LINE
  8
0
 10
        7.472687
 20
       34.908936
 30
        0.000000
 11
        7.719757
 21
       35.156494
 31
        0.000000
  0
LINE
  8
0
 10
        6.907257
 20
       35.474609
 30
        0.000000
 11
        7.154327
 21
       35.722168
 31
        0.000000
  0
LINE
  8
0
 10
        4.926788
 20
       34.908936
 30
        0.000000
 11
        3.993195
 21
       35.843018
 31
        0.000000
  0
LINE
  8
0
 10
        5.492706
 20
       35.474609
 30
        0.000000
 11
        4.558624
 21
       36.408691
 31
        0.000000
  0
LINE
  8
0
 10
        7.840851
 20
       31.995117
 30
        0.000000
 11
        6.907257
 21
       32.929199
 31
        0.000000
  0
LINE
  8
0
 10
        8.406281
 20
       32.560791
 30
        0.000000
 11
        7.472687
 21
       33.494873
 31
        0.000000
  0
LINE
  8
0
 10
        2.849640
 20
       30.852051
 30
        0.000000
 11
        9.549835
 21
       30.852051
 31
        0.000000
  0
LINE
  8
0
 10
        2.849640
 20
       30.852051
 30
        0.000000
 11
        2.849640
 21
       37.552002
 31
        0.000000
  0
LINE
  8
0
 10
       11.750031
 20
       37.552246
 30
        0.000000
 11
       18.449738
 21
       37.552246
 31
        0.000000
  0
LINE
  8
0
 10
       18.449738
 20
       30.852295
 30
        0.000000
 11
       18.449738
 21
       37.552246
 31
        0.000000
  0
CIRCLE
  8
0
 10
       15.099640
 20
       34.202393
 30
        0.000000
 40
        2.750000
  0
LINE
  8
0
 10
       14.145050
 20
       32.681885
 30
        0.000000
 11
       13.579132
 21
       33.247559
 31
        0.000000
  0
ARC
  8
0
 10
       15.099640
 20
       32.222412
 30
        0.000000
 40
        0.999893
 50
       44.999999
 51
      134.999993
  0
ARC
  8
0
 10
       17.079620
 20
       34.202393
 30
        0.000000
 40
        0.999893
 50
      134.999993
 51
      225.019798
  0
ARC
  8
0
 10
       15.099640
 20
       36.182129
 30
        0.000000
 40
        1.000066
 50
      225.009908
 51
      315.009911
  0
ARC
  8
0
 10
       13.120148
 20
       34.202393
 30
        0.000000
 40
        0.999893
 50
      315.000021
 51
      404.999999
  0
LINE
  8
0
 10
       14.145050
 20
       32.681885
 30
        0.000000
 11
       14.392609
 21
       32.929443
 31
        0.000000
  0
LINE
  8
0
 10
       13.579132
 20
       33.247559
 30
        0.000000
 11
       13.827179
 21
       33.495117
 31
        0.000000
  0
LINE
  8
0
 10
       16.620148
 20
       35.156982
 30
        0.000000
 11
       16.054230
 21
       35.722656
 31
        0.000000
  0
LINE
  8
0
 10
       16.372101
 20
       34.909424
 30
        0.000000
 11
       16.620148
 21
       35.156982
 31
        0.000000
  0
LINE
  8
0
 10
       15.806671
 20
       35.475098
 30
        0.000000
 11
       16.054230
 21
       35.722656
 31
        0.000000
  0
LINE
  8
0
 10
       13.827179
 20
       34.909424
 30
        0.000000
 11
       12.893097
 21
       35.843262
 31
        0.000000
  0
LINE
  8
0
 10
       14.392609
 20
       35.475098
 30
        0.000000
 11
       13.459015
 21
       36.408936
 31
        0.000000
  0
LINE
  8
0
 10
       16.740753
 20
       31.995605
 30
        0.000000
 11
       15.806671
 21
       32.929443
 31
        0.000000
  0
LINE
  8
0
 10
       17.306671
 20
       32.561279
 30
        0.000000
 11
       16.372101
 21
       33.495117
 31
        0.000000
  0
LINE
  8
0
 10
       11.750031
 20
       30.852295
 30
        0.000000
 11
       18.449738
 21
       30.852295
 31
        0.000000
  0
LINE
  8
0
 10
       11.750031
 20
       30.852295
 30
        0.000000
 11
       11.750031
 21
       37.552246
 31
        0.000000
  0
LINE
  8
0
 10
       20.649445
 20
       37.552490
 30
        0.000000
 11
       27.349640
 21
       37.552490
 31
        0.000000
  0
LINE
  8
0
 10
       27.349640
 20
       30.852539
 30
        0.000000
 11
       27.349640
 21
       37.552490
 31
        0.000000
  0
CIRCLE
  8
0
 10
       23.999542
 20
       34.202637
 30
        0.000000
 40
        2.750000
  0
LINE
  8
0
 10
       23.044952
 20
       32.682373
 30
        0.000000
 11
       22.479523
 21
       33.248047
 31
        0.000000
  0
ARC
  8
0
 10
       23.999542
 20
       32.222656
 30
        0.000000
 40
        0.999893
 50
       44.999999
 51
      134.999993
  0
ARC
  8
0
 10
       25.979523
 20
       34.202637
 30
        0.000000
 40
        0.999893
 50
      134.999993
 51
      225.019798
  0
ARC
  8
0
 10
       23.999542
 20
       36.182617
 30
        0.000000
 40
        1.000066
 50
      225.009908
 51
      315.009911
  0
ARC
  8
0
 10
       22.019562
 20
       34.202637
 30
        0.000000
 40
        0.999893
 50
      315.000021
 51
      404.999999
  0
LINE
  8
0
 10
       23.044952
 20
       32.682373
 30
        0.000000
 11
       23.292511
 21
       32.929688
 31
        0.000000
  0
LINE
  8
0
 10
       22.479523
 20
       33.248047
 30
        0.000000
 11
       22.726593
 21
       33.495361
 31
        0.000000
  0
LINE
  8
0
 10
       25.519562
 20
       35.157227
 30
        0.000000
 11
       24.954132
 21
       35.722900
 31
        0.000000
  0
LINE
  8
0
 10
       25.272491
 20
       34.909668
 30
        0.000000
 11
       25.519562
 21
       35.157227
 31
        0.000000
  0
LINE
  8
0
 10
       24.707062
 20
       35.475342
 30
        0.000000
 11
       24.954132
 21
       35.722900
 31
        0.000000
  0
LINE
  8
0
 10
       22.726593
 20
       34.909668
 30
        0.000000
 11
       21.792999
 21
       35.843750
 31
        0.000000
  0
LINE
  8
0
 10
       23.292511
 20
       35.475342
 30
        0.000000
 11
       22.358429
 21
       36.409424
 31
        0.000000
  0
LINE
  8
0
 10
       25.640656
 20
       31.995850
 30
        0.000000
 11
       24.707062
 21
       32.929688
 31
        0.000000
  0
LINE
  8
0
 10
       26.206085
 20
       32.561523
 30
        0.000000
 11
       25.272491
 21
       33.495361
 31
        0.000000
  0
LINE
  8
0
 10
       20.649445
 20
       30.852539
 30
        0.000000
 11
       27.349640
 21
       30.852539
 31
        0.000000
  0
LINE
  8
0
 10
       20.649445
 20
       30.852539
 30
        0.000000
 11
       20.649445
 21
       37.552490
 31
        0.000000
  0
LINE
  8
0
 10
       29.549835
 20
       37.552979
 30
        0.000000
 11
       36.249542
 21
       37.552979
 31
        0.000000
  0
LINE
  8
0
 10
       36.249542
 20
       30.853027
 30
        0.000000
 11
       36.249542
 21
       37.552979
 31
        0.000000
  0
CIRCLE
  8
0
 10
       32.899445
 20
       34.202881
 30
        0.000000
 40
        2.750000
  0
LINE
  8
0
 10
       31.944855
 20
       32.682617
 30
        0.000000
 11
       31.378937
 21
       33.248291
 31
        0.000000
  0
ARC
  8
0
 10
       32.899445
 20
       32.223145
 30
        0.000000
 40
        0.999893
 50
       44.999999
 51
      134.999993
  0
ARC
  8
0
 10
       34.879425
 20
       34.202881
 30
        0.000000
 40
        0.999893
 50
      134.999993
 51
      225.019798
  0
ARC
  8
0
 10
       32.899445
 20
       36.182861
 30
        0.000000
 40
        1.000066
 50
      225.009908
 51
      315.029692
  0
ARC
  8
0
 10
       30.919952
 20
       34.202881
 30
        0.000000
 40
        0.999893
 50
      315.000021
 51
      404.999999
  0
LINE
  8
0
 10
       31.944855
 20
       32.682617
 30
        0.000000
 11
       32.192413
 21
       32.930176
 31
        0.000000
  0
LINE
  8
0
 10
       31.378937
 20
       33.248291
 30
        0.000000
 11
       31.626984
 21
       33.495850
 31
        0.000000
  0
LINE
  8
0
 10
       34.419952
 20
       35.157471
 30
        0.000000
 11
       33.854034
 21
       35.723145
 31
        0.000000
  0
LINE
  8
0
 10
       34.171906
 20
       34.910156
 30
        0.000000
 11
       34.419952
 21
       35.157471
 31
        0.000000
  0
LINE
  8
0
 10
       33.606476
 20
       35.475830
 30
        0.000000
 11
       33.854034
 21
       35.723145
 31
        0.000000
  0
LINE
  8
0
 10
       31.626984
 20
       34.910156
 30
        0.000000
 11
       30.692902
 21
       35.843994
 31
        0.000000
  0
LINE
  8
0
 10
       32.192413
 20
       35.475830
 30
        0.000000
 11
       31.258820
 21
       36.409668
 31
        0.000000
  0
LINE
  8
0
 10
       34.540558
 20
       31.996338
 30
        0.000000
 11
       33.606476
 21
       32.930176
 31
        0.000000
  0
LINE
  8
0
 10
       35.106476
 20
       32.562012
 30
        0.000000
 11
       34.171906
 21
       33.495850
 31
        0.000000
  0
LINE
  8
0
 10
       29.549835
 20
       30.853027
 30
        0.000000
 11
       36.249542
 21
       30.853027
 31
        0.000000
  0
LINE
  8
0
 10
       29.549835
 20
       30.853027
 30
        0.000000
 11
       29.549835
 21
       37.552979
 31
        0.000000
  0
LINE
  8
0
 10
       38.449249
 20
       37.553223
 30
        0.000000
 11
       45.149445
 21
       37.553223
 31
        0.000000
  0
LINE
  8
0
 10
       45.149445
 20
       30.853271
 30
        0.000000
 11
       45.149445
 21
       37.553223
 31
        0.000000
  0
CIRCLE
  8
0
 10
       41.799347
 20
       34.203369
 30
        0.000000
 40
        2.750000
  0
LINE
  8
0
 10
       40.844757
 20
       32.682861
 30
        0.000000
 11
       40.279327
 21
       33.248535
 31
        0.000000
  0
ARC
  8
0
 10
       41.799347
 20
       32.223389
 30
        0.000000
 40
        0.999893
 50
       44.999999
 51
      134.999993
  0
ARC
  8
0
 10
       43.779327
 20
       34.203369
 30
        0.000000
 40
        0.999893
 50
      134.999993
 51
      225.019798
  0
ARC
  8
0
 10
       41.799347
 20
       36.183105
 30
        0.000000
 40
        1.000066
 50
      225.009908
 51
      315.029692
  0
ARC
  8
0
 10
       39.819366
 20
       34.203369
 30
        0.000000
 40
        0.999893
 50
      315.000021
 51
      404.999999
  0
LINE
  8
0
 10
       40.844757
 20
       32.682861
 30
        0.000000
 11
       41.092316
 21
       32.930420
 31
        0.000000
  0
LINE
  8
0
 10
       40.279327
 20
       33.248535
 30
        0.000000
 11
       40.526398
 21
       33.496094
 31
        0.000000
  0
LINE
  8
0
 10
       43.319366
 20
       35.157959
 30
        0.000000
 11
       42.753937
 21
       35.723633
 31
        0.000000
  0
LINE
  8
0
 10
       43.072296
 20
       34.910400
 30
        0.000000
 11
       43.319366
 21
       35.157959
 31
        0.000000
  0
LINE
  8
0
 10
       42.506866
 20
       35.476074
 30
        0.000000
 11
       42.753937
 21
       35.723633
 31
        0.000000
  0
LINE
  8
0
 10
       40.526398
 20
       34.910400
 30
        0.000000
 11
       39.592804
 21
       35.844238
 31
        0.000000
  0
LINE
  8
0
 10
       41.092316
 20
       35.476074
 30
        0.000000
 11
       40.158234
 21
       36.409912
 31
        0.000000
  0
LINE
  8
0
 10
       43.440460
 20
       31.996582
 30
        0.000000
 11
       42.506866
 21
       32.930420
 31
        0.000000
  0
LINE
  8
0
 10
       44.005890
 20
       32.562256
 30
        0.000000
 11
       43.072296
 21
       33.496094
 31
        0.000000
  0
LINE
  8
0
 10
       38.449249
 20
       30.853271
 30
        0.000000
 11
       45.149445
 21
       30.853271
 31
        0.000000
  0
LINE
  8
0
 10
       38.449249
 20
       30.853271
 30
        0.000000
 11
       38.449249
 21
       37.553223
 31
        0.000000
  0
LINE
  8
0
 10
       47.349640
 20
       37.553711
 30
        0.000000
 11
       54.049286
 21
       37.553711
 31
        0.000000
  0
CIRCLE
  8
0
 10
       50.699249
 20
       34.203613
 30
        0.000000
 40
        2.750000
  0
LINE
  8
0
 10
       49.744659
 20
       32.683350
 30
        0.000000
 11
       49.178741
 21
       33.249023
 31
        0.000000
  0
ARC
  8
0
 10
       50.699249
 20
       32.223633
 30
        0.000000
 40
        0.999893
 50
       44.999999
 51
      134.999993
  0
ARC
  8
0
 10
       52.679230
 20
       34.203613
 30
        0.000000
 40
        0.999893
 50
      134.999993
 51
      225.019798
  0
ARC
  8
0
 10
       50.699249
 20
       36.183594
 30
        0.000000
 40
        1.000066
 50
      225.009908
 51
      315.009911
  0
ARC
  8
0
 10
       48.719757
 20
       34.203613
 30
        0.000000
 40
        0.999893
 50
      315.000021
 51
      404.999999
  0
LINE
  8
0
 10
       49.744659
 20
       32.683350
 30
        0.000000
 11
       49.992218
 21
       32.930908
 31
        0.000000
  0
LINE
  8
0
 10
       49.178741
 20
       33.249023
 30
        0.000000
 11
       49.426788
 21
       33.496582
 31
        0.000000
  0
LINE
  8
0
 10
       52.219757
 20
       35.158203
 30
        0.000000
 11
       51.653839
 21
       35.723877
 31
        0.000000
  0
LINE
  8
0
 10
       51.971710
 20
       34.910645
 30
        0.000000
 11
       52.219757
 21
       35.158203
 31
        0.000000
  0
LINE
  8
0
 10
       51.406281
 20
       35.476318
 30
        0.000000
 11
       51.653839
 21
       35.723877
 31
        0.000000
  0
LINE
  8
0
 10
       49.426788
 20
       34.910645
 30
        0.000000
 11
       48.492706
 21
       35.844727
 31
        0.000000
  0
LINE
  8
0
 10
       49.992218
 20
       35.476318
 30
        0.000000
 11
       49.058624
 21
       36.410400
 31
        0.000000
  0
LINE
  8
0
 10
       52.340363
 20
       31.996826
 30
        0.000000
 11
       51.406281
 21
       32.930908
 31
        0.000000
  0
LINE
  8
0
 10
       52.906281
 20
       32.562500
 30
        0.000000
 11
       51.971710
 21
       33.496582
 31
        0.000000
  0
LINE
  8
0
 10
       47.349640
 20
       30.853516
 30
        0.000000
 11
       47.349640
 21
       37.553711
 31
        0.000000
  0
ARC
  8
0
 10
       67.499969
 20
       37.500000
 30
        0.000000
 40
        2.500000
 50
        0.000000
 51
       90.000000
  0
LINE
  8
0
 10
       69.999969
 20
      -37.500000
 30
        0.000000
 11
       69.999969
 21
       37.500000
 31
        0.000000
  0
LINE
  8
0
 10
       54.400360
 20
       40.000000
 30
        0.000000
 11
       67.499969
 21
       40.000000
 31
        0.000000
  0
ARC
  8
0
 10
       67.499969
 20
      -37.500000
 30
        0.000000
 40
        2.500000
 50
      270.000000
 51
      360.000000
  0
LINE
  8
0
 10
       67.499969
 20
      -40.000000
 30
        0.000000
 11
       54.400360
 21
      -40.000000
 31
        0.000000
  0
ARC
  8
0
 10
      -67.499969
 20
      -37.500000
 30
        0.000000
 40
        2.500000
 50
      180.000015
 51
      270.000000
  0
LINE
  8
0
 10
      -67.499969
 20
      -40.000000
 30
        0.000000
 11
      -54.399384
 21
      -40.000000
 31
        0.000000
  0
LINE
  8
0
 10
      -69.999969
 20
      -37.500000
 30
        0.000000
 11
      -69.999969
 21
       37.500000
 31
        0.000000
  0
ARC
  8
0
 10
      -67.499969
 20
       37.500000
 30
        0.000000
 40
        2.500000
 50
       90.000000
 51
      180.000015
  0
LINE
  8
0
 10
      -54.399384
 20
       40.000000
 30
        0.000000
 11
      -67.499969
 21
       40.000000
 31
        0.000000
  0
LINE
  8
0
 10
       69.999969
 20
      -29.900146
 30
        0.000000
 11
      -69.999969
 21
      -29.900146
 31
        0.000000
  0
LINE
  8
0
 10
      -69.999969
 20
       29.899902
 30
        0.000000
 11
       69.999969
 21
       29.899902
 31
        0.000000
  0
LINE
  8
0
 10
      -68.299774
 20
       29.899902
 30
        0.000000
 11
      -68.299774
 21
       37.500000
 31
        0.000000
  0
ARC
  8
0
 10
      -67.499969
 20
       37.500000
 30
        0.000000
 40
        0.800049
 50
       90.000000
 51
      180.000015
  0
LINE
  8
0
 10
      -68.299774
 20
      -37.500000
 30
        0.000000
 11
      -68.299774
 21
      -29.900146
 31
        0.000000
  0
ARC
  8
0
 10
      -67.499969
 20
      -37.500000
 30
        0.000000
 40
        0.799805
 50
      180.000015
 51
      270.000000
  0
LINE
  8
0
 10
       68.300262
 20
      -37.500000
 30
        0.000000
 11
       68.300262
 21
      -29.900146
 31
        0.000000
  0
ARC
  8
0
 10
       67.499969
 20
      -37.500000
 30
        0.000000
 40
        0.800049
 50
      270.000000
 51
      360.000000
  0
LINE
  8
0
 10
       68.300262
 20
       29.899902
 30
        0.000000
 11
       68.300262
 21
       37.500000
 31
        0.000000
  0
ARC
  8
0
 10
       67.499969
 20
       37.500000
 30
        0.000000
 40
        0.799805
 50
        0.000000
 51
       90.000000
  0
LINE
  8
0
 10
       67.499969
 20
      -38.300049
 30
        0.000000
 11
       65.300262
 21
      -38.300049
 31
        0.000000
  0
LINE
  8
0
 10
      -65.299774
 20
       38.300049
 30
        0.000000
 11
      -67.499969
 21
       38.300049
 31
        0.000000
  0
LINE
  8
0
 10
      -65.299774
 20
      -38.300049
 30
        0.000000
 11
      -65.299774
 21
      -29.900146
 31
        0.000000
  0
LINE
  8
0
 10
      -67.499969
 20
      -38.300049
 30
        0.000000
 11
      -65.299774
 21
      -38.300049
 31
        0.000000
  0
LINE
  8
0
 10
       65.299774
 20
       38.300049
 30
        0.000000
 11
       67.499969
 21
       38.300049
 31
        0.000000
  0
LINE
  8
0
 10
       65.299774
 20
       29.899902
 30
        0.000000
 11
       65.299774
 21
       38.300049
 31
        0.000000
  0
ARC
  8
0
 10
      -60.499969
 20
      -40.000244
 30
        0.000000
 40
        3.000000
 50
        0.000000
 51
       90.000000
  0
ARC
  8
0
 10
      -62.499481
 20
      -40.000244
 30
        0.000000
 40
        3.000000
 50
       90.000000
 51
      180.000015
  0
LINE
  8
0
 10
      -60.499969
 20
      -37.000244
 30
        0.000000
 11
      -62.499481
 21
      -37.000244
 31
        0.000000
  0
LINE
  8
0
 10
       60.499969
 20
       37.000000
 30
        0.000000
 11
       62.499969
 21
       37.000000
 31
        0.000000
  0
ARC
  8
0
 10
       62.499969
 20
       40.000000
 30
        0.000000
 40
        3.000000
 50
      270.000000
 51
      360.000000
  0
ARC
  8
0
 10
       60.499969
 20
       40.000000
 30
        0.000000
 40
        3.000000
 50
      180.000015
 51
      270.000000
  0
CIRCLE
  8
0
 10
       61.999969
 20
      -33.900146
 30
        0.000000
 40
        4.000000
  0
CIRCLE
  8
0
 10
      -61.999969
 20
       33.899902
 30
        0.000000
 40
        4.000000
  0
LINE
  8
0
 10
       65.300262
 20
      -31.639648
 30
        0.000000
 11
       65.300262
 21
      -29.900146
 31
        0.000000
  0
LINE
  8
0
 10
       65.300262
 20
      -38.300049
 30
        0.000000
 11
       65.300262
 21
      -36.160645
 31
        0.000000
  0
LINE
  8
0
 10
      -65.299774
 20
       36.160400
 30
        0.000000
 11
      -65.299774
 21
       38.300049
 31
        0.000000
  0
LINE
  8
0
 10
      -65.299774
 20
       29.899902
 30
        0.000000
 11
      -65.299774
 21
       31.639404
 31
        0.000000
  0
LINE
  8
0
 10
       39.200714
 20
       -1.500000
 30
        0.000000
 11
       69.999969
 21
       -1.500000
 31
        0.000000
  0
ARC
  8
0
 10
       39.200714
 20
       -0.500000
 30
        0.000000
 40
        1.000000
 50
      180.000029
 51
      270.000000
  0
LINE
  8
0
 10
       39.200714
 20
       21.400146
 30
        0.000000
 11
       69.999969
 21
       21.400146
 31
        0.000000
  0
ARC
  8
0
 10
       39.200714
 20
       20.400146
 30
        0.000000
 40
        1.000000
 50
       90.000000
 51
      180.000015
  0
CIRCLE
  8
0
 10
       33.250031
 20
        5.599854
 30
        0.000000
 40
        1.399902
  0
CIRCLE
  8
0
 10
       27.250031
 20
        5.599854
 30
        0.000000
 40
        1.399902
  0
CIRCLE
  8
0
 10
       21.250031
 20
        5.599854
 30
        0.000000
 40
        1.399902
  0
CIRCLE
  8
0
 10
       15.250031
 20
        5.599854
 30
        0.000000
 40
        1.399902
  0
CIRCLE
  8
0
 10
        9.250031
 20
        5.599854
 30
        0.000000
 40
        1.399902
  0
CIRCLE
  8
0
 10
        3.250031
 20
        5.599854
 30
        0.000000
 40
        1.399902
  0
CIRCLE
  8
0
 10
       -2.749969
 20
        5.599854
 30
        0.000000
 40
        1.399902
  0
CIRCLE
  8
0
 10
       -8.749969
 20
        5.599854
 30
        0.000000
 40
        1.399902
  0
CIRCLE
  8
0
 10
       -8.749969
 20
       -2.000000
 30
        0.000000
 40
        1.399902
  0
CIRCLE
  8
0
 10
       -2.749969
 20
       -2.000000
 30
        0.000000
 40
        1.399902
  0
CIRCLE
  8
0
 10
        3.250031
 20
       -2.000000
 30
        0.000000
 40
        1.399902
  0
CIRCLE
  8
0
 10
        9.250031
 20
       -2.000000
 30
        0.000000
 40
        1.399902
  0
CIRCLE
  8
0
 10
       15.250031
 20
       -2.000000
 30
        0.000000
 40
        1.399902
  0
CIRCLE
  8
0
 10
       21.250031
 20
       -2.000000
 30
        0.000000
 40
        1.399902
  0
CIRCLE
  8
0
 10
       27.250031
 20
       -2.000000
 30
        0.000000
 40
        1.399902
  0
CIRCLE
  8
0
 10
       33.250031
 20
       -2.000000
 30
        0.000000
 40
        1.399902
  0
LINE
  8
0
 10
       38.200714
 20
       -0.500000
 30
        0.000000
 11
       38.200714
 21
        8.900146
 31
        0.000000
  0
LINE
  8
0
 10
       35.700714
 20
       19.400146
 30
        0.000000
 11
       38.200714
 21
       19.400146
 31
        0.000000
  0
ARC
  8
0
 10
       35.700714
 20
       18.400146
 30
        0.000000
 40
        1.000000
 50
       90.000000
 51
      180.000015
  0
LINE
  8
0
 10
       34.700714
 20
        9.900146
 30
        0.000000
 11
       34.700714
 21
       18.400146
 31
        0.000000
  0
LINE
  8
0
 10
       35.700714
 20
        8.900146
 30
        0.000000
 11
       38.200714
 21
        8.900146
 31
        0.000000
  0
ARC
  8
0
 10
       35.700714
 20
        9.900146
 30
        0.000000
 40
        1.000000
 50
      180.000015
 51
      270.000000
  0
LINE
  8
0
 10
       53.871063
 20
       29.899902
 30
        0.000000
 11
       54.400360
 21
       40.000000
 31
        0.000000
  0
LINE
  8
0
 10
      -53.869843
 20
       29.899902
 30
        0.000000
 11
      -54.399384
 21
       40.000000
 31
        0.000000
  0
LINE
  8
0
 10
      -54.399384
 20
      -40.000000
 30
        0.000000
 11
      -53.870087
 21
      -29.900146
 31
        0.000000
  0
LINE
  8
0
 10
       54.400360
 20
      -40.000000
 30
        0.000000
 11
       53.871063
 21
      -29.900146
 31
        0.000000
  0
LINE
  8
0
 10
      -46.999969
 20
      -38.400024
 30
        0.000000
 11
      -54.315399
 21
      -38.400024
 31
        0.000000
  0
LINE
  8
0
 10
      -46.999969
 20
      -39.000000
 30
        0.000000
 11
      -54.347137
 21
      -39.000000
 31
        0.000000
  0
LINE
  8
0
 10
       38.200714
 20
        8.900146
 30
        0.000000
 11
       38.200714
 21
       20.400146
 31
        0.000000
  0
LINE
  8
0
 10
       54.049286
 20
       33.300659
 30
        0.000000
 11
       54.049286
 21
       37.553711
 31
        0.000000
  0
LINE
  8
0
 10
       47.349640
 20
       30.853516
 30
        0.000000
 11
       53.920868
 21
       30.853516
 31
        0.000000
  0
LINE
  8
0
 10
      -54.049774
 20
       33.331787
 30
        0.000000
 11
      -54.049774
 21
       37.549805
 31
        0.000000
  0
LINE
  8
0
 10
      -53.919647
 20
       30.849854
 30
        0.000000
 11
      -47.349579
 21
       30.849854
 31
        0.000000
  0
LINE
  8
0
 10
      -46.999969
 20
       39.000000
 30
        0.000000
 11
      -54.346893
 21
       39.000000
 31
        0.000000
  0
LINE
  8
0
 10
      -46.999969
 20
       38.399902
 30
        0.000000
 11
      -54.315399
 21
       38.399902
 31
        0.000000
  0
LINE
  8
0
 10
       54.348114
 20
      -39.000000
 30
        0.000000
 11
       47.000275
 21
      -39.000000
 31
        0.000000
  0
LINE
  8
0
 10
       54.316376
 20
      -38.400024
 30
        0.000000
 11
       47.000275
 21
      -38.400024
 31
        0.000000
  0
LINE
  8
0
 10
       54.049286
 20
      -33.301025
 30
        0.000000
 11
       54.049286
 21
      -37.553711
 31
        0.000000
  0
LINE
  8
0
 10
       47.349640
 20
      -30.853760
 30
        0.000000
 11
       53.920868
 21
      -30.853760
 31
        0.000000
  0
LINE
  8
0
 10
      -54.049774
 20
      -33.328979
 30
        0.000000
 11
      -54.049774
 21
      -37.550049
 31
        0.000000
  0
LINE
  8
0
 10
      -53.919891
 20
      -30.850098
 30
        0.000000
 11
      -47.349579
 21
      -30.850098
 31
        0.000000
  0
LINE
  8
0
 10
        4.250031
 20
      -40.000000
 30
        0.000000
 11
       -4.249969
 21
      -40.000000
 31
        0.000000
  0
ARC
  8
0
 10
        0.000031
 20
      -41.400146
 30
        0.000000
 40
        1.299927
 50
      270.000000
 51
      360.000000
  0
ARC
  8
0
 10
        0.000031
 20
      -41.400146
 30
        0.000000
 40
        1.300293
 50
      180.000015
 51
      270.000000
  0
LINE
  8
0
 10
       -1.300262
 20
      -41.400146
 30
        0.000000
 11
       -4.249969
 21
      -41.400146
 31
        0.000000
  0
LINE
  8
0
 10
       -4.249969
 20
      -41.400146
 30
        0.000000
 11
       -4.249969
 21
      -40.000000
 31
        0.000000
  0
ARC
  8
0
 10
       -4.748993
 20
      -41.500000
 30
        0.000000
 40
        1.999996
 50
      228.818366
 51
      270.000000
  0
LINE
  8
0
 10
       -9.500458
 20
      -40.000000
 30
        0.000000
 11
       -6.065887
 21
      -43.005249
 31
        0.000000
  0
ARC
  8
0
 10
        4.748077
 20
      -41.500000
 30
        0.000000
 40
        2.000000
 50
      270.000000
 51
      311.200169
  0
LINE
  8
0
 10
        9.499542
 20
      -40.000000
 30
        0.000000
 11
        6.065460
 21
      -43.005127
 31
        0.000000
  0
LINE
  8
0
 10
        4.748077
 20
      -43.500000
 30
        0.000000
 11
       -4.748993
 21
      -43.500000
 31
        0.000000
  0
LINE
  8
0
 10
        4.250031
 20
      -41.400146
 30
        0.000000
 11
        1.299835
 21
      -41.400146
 31
        0.000000
  0
LINE
  8
0
 10
        4.250031
 20
      -41.400146
 30
        0.000000
 11
        4.250031
 21
      -40.000000
 31
        0.000000
  0
CIRCLE
  8
0
 10
       -8.749969
 20
        5.599854
 30
        0.000000
 40
        1.550049
  0
CIRCLE
  8
0
 10
       -2.749969
 20
        5.599854
 30
        0.000000
 40
        1.550049
  0
CIRCLE
  8
0
 10
        3.250031
 20
        5.599854
 30
        0.000000
 40
        1.550049
  0
CIRCLE
  8
0
 10
        9.250031
 20
        5.599854
 30
        0.000000
 40
        1.550049
  0
CIRCLE
  8
0
 10
       15.250031
 20
        5.599854
 30
        0.000000
 40
        1.550049
  0
CIRCLE
  8
0
 10
       21.250031
 20
        5.599854
 30
        0.000000
 40
        1.550049
  0
CIRCLE
  8
0
 10
       27.250031
 20
        5.599854
 30
        0.000000
 40
        1.550049
  0
CIRCLE
  8
0
 10
       33.250031
 20
        5.599854
 30
        0.000000
 40
        1.550049
  0
CIRCLE
  8
0
 10
       33.250031
 20
       -2.000000
 30
        0.000000
 40
        1.550049
  0
CIRCLE
  8
0
 10
       27.250031
 20
       -2.000000
 30
        0.000000
 40
        1.550049
  0
CIRCLE
  8
0
 10
       21.250031
 20
       -2.000000
 30
        0.000000
 40
        1.550049
  0
CIRCLE
  8
0
 10
       15.250031
 20
       -2.000000
 30
        0.000000
 40
        1.550049
  0
CIRCLE
  8
0
 10
        9.250031
 20
       -2.000000
 30
        0.000000
 40
        1.550049
  0
CIRCLE
  8
0
 10
        3.250031
 20
       -2.000000
 30
        0.000000
 40
        1.550049
  0
CIRCLE
  8
0
 10
       -2.749969
 20
       -2.000000
 30
        0.000000
 40
        1.550049
  0
CIRCLE
  8
0
 10
       -8.749969
 20
       -2.000000
 30
        0.000000
 40
        1.550049
  0
LINE
  8
0
 10
      -60.909973
 20
       -9.855698
 30
        0.000000
 11
      -60.909973
 21
        9.855698
 31
        0.000000
  0
ARC
  8
0
 10
      -59.309937
 20
        9.855698
 30
        0.000000
 40
        1.599990
 50
       99.999872
 51
      180.000015
  0
LINE
  8
0
 10
      -54.689941
 20
       12.295029
 30
        0.000000
 11
      -59.587769
 21
       11.431381
 31
        0.000000
  0
ARC
  8
0
 10
      -54.689941
 20
       10.694992
 30
        0.000000
 40
        1.599976
 50
        0.000000
 51
       90.000000
  0
LINE
  8
0
 10
      -53.089966
 20
      -10.694992
 30
        0.000000
 11
      -53.089966
 21
       10.694992
 31
        0.000000
  0
ARC
  8
0
 10
      -54.689941
 20
      -10.694992
 30
        0.000000
 40
        1.599976
 50
      270.000000
 51
      360.000000
  0
LINE
  8
0
 10
      -54.689941
 20
      -12.295029
 30
        0.000000
 11
      -59.587769
 21
      -11.431381
 31
        0.000000
  0
ARC
  8
0
 10
      -59.309937
 20
       -9.855698
 30
        0.000000
 40
        1.599976
 50
      180.000015
 51
      260.000063
  0
CIRCLE
  8
0
 10
      -56.999939
 20
      -16.660004
 30
        0.000000
 40
        1.299988
  0
CIRCLE
  8
0
 10
      -56.999939
 20
       16.660004
 30
        0.000000
 40
        1.299988
  0
LINE
  8
0
 10
      -59.499939
 20
      -18.103378
 30
        0.000000
 11
      -56.999939
 21
      -19.546753
 31
        0.000000
  0
LINE
  8
0
 10
      -56.999939
 20
      -19.546753
 30
        0.000000
 11
      -54.499939
 21
      -18.103378
 31
        0.000000
  0
LINE
  8
0
 10
      -54.499939
 20
      -18.103378
 30
        0.000000
 11
      -54.499939
 21
      -15.216629
 31
        0.000000
  0
LINE
  8
0
 10
      -54.499939
 20
      -15.216629
 30
        0.000000
 11
      -56.999939
 21
      -13.773254
 31
        0.000000
  0
LINE
  8
0
 10
      -56.999939
 20
      -13.773254
 30
        0.000000
 11
      -59.499939
 21
      -15.216629
 31
        0.000000
  0
LINE
  8
0
 10
      -59.499939
 20
      -15.216629
 30
        0.000000
 11
      -59.499939
 21
      -18.103378
 31
        0.000000
  0
LINE
  8
0
 10
      -59.499939
 20
       15.216629
 30
        0.000000
 11
      -56.999939
 21
       13.773254
 31
        0.000000
  0
LINE
  8
0
 10
      -56.999939
 20
       13.773254
 30
        0.000000
 11
      -54.499939
 21
       15.216629
 31
        0.000000
  0
LINE
  8
0
 10
      -54.499939
 20
       15.216629
 30
        0.000000
 11
      -54.499939
 21
       18.103378
 31
        0.000000
  0
LINE
  8
0
 10
      -54.499939
 20
       18.103378
 30
        0.000000
 11
      -56.999939
 21
       19.546753
 31
        0.000000
  0
LINE
  8
0
 10
      -56.999939
 20
       19.546753
 30
        0.000000
 11
      -59.499939
 21
       18.103378
 31
        0.000000
  0
LINE
  8
0
 10
      -59.499939
 20
       18.103378
 30
        0.000000
 11
      -59.499939
 21
       15.216629
 31
        0.000000
  0
ARC
  8
0
 10
      -51.699951
 20
       18.550003
 30
        0.000000
 40
        1.000000
 50
        0.000000
 51
       90.000000
  0
ARC
  8
0
 10
      -62.299927
 20
       18.550003
 30
        0.000000
 40
        1.000000
 50
       90.000000
 51
      180.000015
  0
ARC
  8
0
 10
      -62.299927
 20
      -18.550003
 30
        0.000000
 40
        1.000000
 50
      180.000015
 51
      270.000000
  0
ARC
  8
0
 10
      -51.699951
 20
      -18.550003
 30
        0.000000
 40
        1.000000
 50
      270.000000
 51
      360.000000
  0
LINE
  8
0
 10
      -50.699951
 20
       18.550003
 30
        0.000000
 11
      -50.699951
 21
      -18.550003
 31
        0.000000
  0
LINE
  8
0
 10
      -62.299927
 20
       19.550003
 30
        0.000000
 11
      -51.699951
 21
       19.550003
 31
        0.000000
  0
LINE
  8
0
 10
      -63.299927
 20
       18.550003
 30
        0.000000
 11
      -63.299927
 21
      -18.550003
 31
        0.000000
  0
LINE
  8
0
 10
      -62.299927
 20
      -19.550003
 30
        0.000000
 11
      -51.699951
 21
      -19.550003
 31
        0.000000
  0
CIRCLE
  8
0
 10
      -55.579956
 20
        9.600006
 30
        0.000000
 40
        0.500000
  0
CIRCLE
  8
0
 10
      -55.579956
 20
        6.860001
 30
        0.000000
 40
        0.500000
  0
CIRCLE
  8
0
 10
      -55.579956
 20
        4.110001
 30
        0.000000
 40
        0.500000
  0
CIRCLE
  8
0
 10
      -55.579956
 20
        1.369995
 30
        0.000000
 40
        0.500000
  0
CIRCLE
  8
0
 10
      -55.579956
 20
       -1.369995
 30
        0.000000
 40
        0.500000
  0
CIRCLE
  8
0
 10
      -55.579956
 20
       -4.110001
 30
        0.000000
 40
        0.500000
  0
CIRCLE
  8
0
 10
      -55.579956
 20
       -6.860001
 30
        0.000000
 40
        0.500000
  0
CIRCLE
  8
0
 10
      -55.579956
 20
       -9.600006
 30
        0.000000
 40
        0.500000
  0
CIRCLE
  8
0
 10
      -58.419922
 20
       -8.229996
 30
        0.000000
 40
        0.500000
  0
CIRCLE
  8
0
 10
      -58.419922
 20
       -5.490005
 30
        0.000000
 40
        0.500000
  0
CIRCLE
  8
0
 10
      -58.419922
 20
       -2.740006
 30
        0.000000
 40
        0.500000
  0
CIRCLE
  8
0
 10
      -58.419922
 20
        0.000000
 30
        0.000000
 40
        0.500000
  0
CIRCLE
  8
0
 10
      -58.419922
 20
        5.490005
 30
        0.000000
 40
        0.500000
  0
CIRCLE
  8
0
 10
      -58.419922
 20
        2.740005
 30
        0.000000
 40
        0.500000
  0
CIRCLE
  8
0
 10
      -58.419922
 20
        8.229996
 30
        0.000000
 40
        0.500000
  0
LINE
  8
0
 10
      -69.322540
 20
       17.000000
 30
        0.000000
 11
      -65.999939
 21
       17.000000
 31
        0.000000
  0
LINE
  8
0
 10
      -69.322540
 20
      -17.000000
 30
        0.000000
 11
      -65.999939
 21
      -17.000000
 31
        0.000000
  0
LINE
  8
0
 10
      -65.999939
 20
      -19.500000
 30
        0.000000
 11
      -65.999939
 21
      -17.000000
 31
        0.000000
  0
ARC
  8
0
 10
      -63.999939
 20
      -19.500000
 30
        0.000000
 40
        2.000000
 50
      180.000015
 51
      270.000000
  0
LINE
  8
0
 10
      -63.999939
 20
      -21.500000
 30
        0.000000
 11
      -49.999969
 21
      -21.500000
 31
        0.000000
  0
ARC
  8
0
 10
      -49.999969
 20
      -19.500000
 30
        0.000000
 40
        2.000000
 50
      270.000000
 51
      360.000000
  0
LINE
  8
0
 10
      -65.999939
 20
       17.000000
 30
        0.000000
 11
      -65.999939
 21
       19.500000
 31
        0.000000
  0
ARC
  8
0
 10
      -63.999939
 20
       19.500000
 30
        0.000000
 40
        2.000000
 50
       90.000000
 51
      180.000015
  0
LINE
  8
0
 10
      -63.999939
 20
       21.500000
 30
        0.000000
 11
      -49.999969
 21
       21.500000
 31
        0.000000
  0
LINE
  8
0
 10
      -47.999969
 20
      -19.500000
 30
        0.000000
 11
      -47.999969
 21
       19.500000
 31
        0.000000
  0
ARC
  8
0
 10
      -49.999969
 20
       19.500000
 30
        0.000000
 40
        2.000000
 50
        0.000000
 51
       90.000000
  0
LINE
  8
0
 10
      -69.322540
 20
      -17.000000
 30
        0.000000
 11
      -69.322540
 21
       17.000000
 31
        0.000000
  0
LINE
  8
0
 10
      -67.318832
 20
      -17.000000
 30
        0.000000
 11
      -67.318832
 21
       17.000000
 31
        0.000000
  0
CIRCLE
  8
0
 10
      -33.999969
 20
      -10.999998
 30
        0.000000
 40
        8.000000
  0
CIRCLE
  8
0
 10
      -33.999969
 20
       11.000002
 30
        0.000000
 40
        8.000000
  0
LINE
  8
0
 10
      -69.999969
 20
      -37.500000
 30
        0.000000
 11
      -69.999969
 21
       37.500000
 31
        0.000000
  0
CIRCLE
  8
0
 10
      -36.550262
 20
       12.000033
 30
        0.000000
 40
        0.500000
  0
CIRCLE
  8
0
 10
      -36.550262
 20
       10.000033
 30
        0.000000
 40
        0.500000
  0
CIRCLE
  8
0
 10
      -34.999969
 20
        8.500033
 30
        0.000000
 40
        0.500000
  0
CIRCLE
  8
0
 10
      -34.999969
 20
       11.000033
 30
        0.000000
 40
        0.500000
  0
CIRCLE
  8
0
 10
      -34.999969
 20
       13.500033
 30
        0.000000
 40
        0.500000
  0
CIRCLE
  8
0
 10
      -32.999969
 20
        8.500033
 30
        0.000000
 40
        0.500000
  0
CIRCLE
  8
0
 10
      -32.999969
 20
       13.500033
 30
        0.000000
 40
        0.500000
  0
CIRCLE
  8
0
 10
      -32.999969
 20
       11.000033
 30
        0.000000
 40
        0.500000
  0
CIRCLE
  8
0
 10
      -31.450165
 20
       10.000033
 30
        0.000000
 40
        0.500000
  0
CIRCLE
  8
0
 10
      -31.450165
 20
       12.000033
 30
        0.000000
 40
        0.500000
  0
CIRCLE
  8
0
 10
      -33.999969
 20
       11.000033
 30
        0.000000
 40
        3.800293
  0
CIRCLE
  8
0
 10
      -33.999969
 20
       11.000033
 30
        0.000000
 40
        4.800293
  0
CIRCLE
  8
0
 10
      -33.999969
 20
       11.000033
 30
        0.000000
 40
        5.949707
  0
CIRCLE
  8
0
 10
      -33.999969
 20
      -10.999967
 30
        0.000000
 40
        3.800293
  0
CIRCLE
  8
0
 10
      -33.999969
 20
      -10.999967
 30
        0.000000
 40
        4.800293
  0
CIRCLE
  8
0
 10
      -36.550262
 20
       -9.999967
 30
        0.000000
 40
        0.500000
  0
CIRCLE
  8
0
 10
      -36.550262
 20
      -11.999967
 30
        0.000000
 40
        0.500000
  0
CIRCLE
  8
0
 10
      -32.999969
 20
      -13.499967
 30
        0.000000
 40
        0.500000
  0
CIRCLE
  8
0
 10
      -34.999969
 20
      -13.499967
 30
        0.000000
 40
        0.500000
  0
CIRCLE
  8
0
 10
      -34.999969
 20
      -10.999967
 30
        0.000000
 40
        0.500000
  0
CIRCLE
  8
0
 10
      -34.999969
 20
       -8.499967
 30
        0.000000
 40
        0.500000
  0
CIRCLE
  8
0
 10
      -32.999969
 20
       -8.499967
 30
        0.000000
 40
        0.500000
  0
CIRCLE
  8
0
 10
      -32.999969
 20
      -10.999967
 30
        0.000000
 40
        0.500000
  0
CIRCLE
  8
0
 10
      -31.450165
 20
      -11.999967
 30
        0.000000
 40
        0.500000
  0
CIRCLE
  8
0
 10
      -31.450165
 20
       -9.999967
 30
        0.000000
 40
        0.500000
  0
CIRCLE
  8
0
 10
      -33.999969
 20
       11.000033
 30
        0.000000
 40
        8.000000
  0
CIRCLE
  8
0
 10
      -33.999969
 20
      -10.999967
 30
        0.000000
 40
        8.000000
  0
CIRCLE
  8
0
 10
      -33.999969
 20
      -10.999967
 30
        0.000000
 40
        7.000000
  0
CIRCLE
  8
0
 10
      -33.999969
 20
      -10.999967
 30
        0.000000
 40
        5.949707
  0
CIRCLE
  8
0
 10
      -33.999969
 20
       11.000033
 30
        0.000000
 40
        7.000000
  0
LINE
  8
0
 10
        9.500031
 20
     -121.812256
 30
        0.000000
 11
       -9.499969
 21
     -121.812256
 31
        0.000000
  0
LINE
  8
0
 10
       -9.499969
 20
     -125.812256
 30
        0.000000
 11
       -9.499969
 21
     -121.812134
 31
        0.000000
  0
LINE
  8
0
 10
        9.500031
 20
     -125.812256
 30
        0.000000
 11
        9.500031
 21
     -121.812256
 31
        0.000000
  0
LINE
  8
0
 10
      -17.999969
 20
     -117.812256
 30
        0.000000
 11
      -17.999969
 21
      -99.812256
 31
        0.000000
  0
LINE
  8
0
 10
       18.000031
 20
     -117.812256
 30
        0.000000
 11
       18.000031
 21
      -99.812256
 31
        0.000000
  0
LINE
  8
0
 10
       65.352570
 20
      -74.512085
 30
        0.000000
 11
       67.705353
 21
      -74.512085
 31
        0.000000
  0
LINE
  8
0
 10
      -65.352509
 20
      -74.512085
 30
        0.000000
 11
      -67.705292
 21
      -74.512085
 31
        0.000000
  0
CIRCLE
  8
0
 10
      -54.400116
 20
      -85.812134
 30
        0.000000
 40
        0.300049
  0
LINE
  8
0
 10
      -54.400116
 20
      -85.812134
 30
        0.000000
 11
      -54.545135
 21
      -77.512085
 31
        0.000000
  0
LINE
  8
0
 10
      -54.545135
 20
      -77.512085
 30
        0.000000
 11
      -69.564911
 21
      -77.512085
 31
        0.000000
  0
LINE
  8
0
 10
       54.400421
 20
      -85.812134
 30
        0.000000
 11
       54.545441
 21
      -77.513306
 31
        0.000000
  0
LINE
  8
0
 10
      -69.999969
 20
      -85.812134
 30
        0.000000
 11
      -67.999969
 21
      -85.812134
 31
        0.000000
  0
LINE
  8
0
 10
       68.000031
 20
      -85.812134
 30
        0.000000
 11
       70.000031
 21
      -85.812134
 31
        0.000000
  0
LINE
  8
0
 10
      -67.699921
 20
      -85.812134
 30
        0.000000
 11
       67.699982
 21
      -85.812134
 31
        0.000000
  0
LINE
  8
0
 10
      -67.999969
 20
      -85.812500
 30
        0.000000
 11
      -67.999969
 21
      -85.812134
 31
        0.000000
  0
ARC
  8
0
 10
      -66.627411
 20
      -69.225708
 30
        0.000000
 40
        2.500000
 50
       90.000000
 51
      176.999534
  0
LINE
  8
0
 10
       66.627228
 20
      -66.725708
 30
        0.000000
 11
      -66.627411
 21
      -66.725708
 31
        0.000000
  0
ARC
  8
0
 10
       66.627228
 20
      -69.225708
 30
        0.000000
 40
        2.500009
 50
        3.000436
 51
       90.000000
  0
LINE
  8
0
 10
       70.000031
 20
      -85.812500
 30
        0.000000
 11
       69.012970
 21
      -66.982178
 31
        0.000000
  0
ARC
  8
0
 10
       66.516388
 20
      -67.111816
 30
        0.000000
 40
        2.500009
 50
        3.000436
 51
       90.000000
  0
LINE
  8
0
 10
      -69.999969
 20
      -85.812500
 30
        0.000000
 11
      -69.013397
 21
      -66.982544
 31
        0.000000
  0
LINE
  8
0
 10
       66.516388
 20
      -64.611816
 30
        0.000000
 11
      -66.516815
 21
      -64.611816
 31
        0.000000
  0
ARC
  8
0
 10
      -66.516815
 20
      -67.111816
 30
        0.000000
 40
        2.500000
 50
       90.000000
 51
      176.999534
  0
LINE
  8
0
 10
       67.752472
 20
      -75.412354
 30
        0.000000
 11
       68.176056
 21
      -75.912354
 31
        0.000000
  0
LINE
  8
0
 10
       68.176056
 20
      -75.912354
 30
        0.000000
 11
       67.804962
 21
      -76.412354
 31
        0.000000
  0
LINE
  8
0
 10
      -67.752655
 20
      -75.412354
 30
        0.000000
 11
      -68.176239
 21
      -75.912354
 31
        0.000000
  0
LINE
  8
0
 10
      -68.176239
 20
      -75.912354
 30
        0.000000
 11
      -67.805145
 21
      -76.412354
 31
        0.000000
  0
ARC
  8
0
 10
      -62.499725
 20
      -77.512085
 30
        0.000000
 40
        3.000000
 50
      180.000015
 51
      270.000000
  0
ARC
  8
0
 10
      -60.499969
 20
      -77.512085
 30
        0.000000
 40
        3.000000
 50
      270.000000
 51
      360.000000
  0
LINE
  8
0
 10
      -60.499969
 20
      -80.512085
 30
        0.000000
 11
      -62.499725
 21
      -80.512085
 31
        0.000000
  0
LINE
  8
0
 10
       67.862579
 20
      -77.512085
 30
        0.000000
 11
       67.705353
 21
      -74.512085
 31
        0.000000
  0
LINE
  8
0
 10
      -67.862518
 20
      -77.512085
 30
        0.000000
 11
      -67.705292
 21
      -74.512085
 31
        0.000000
  0
LINE
  8
0
 10
       65.300323
 20
      -77.512085
 30
        0.000000
 11
       65.352570
 21
      -74.512085
 31
        0.000000
  0
LINE
  8
0
 10
      -65.300262
 20
      -77.512085
 30
        0.000000
 11
      -65.352509
 21
      -74.512085
 31
        0.000000
  0
ARC
  8
0
 10
       50.700226
 20
      -89.412598
 30
        0.000000
 40
        7.000010
 50
       73.742229
 51
      106.257759
  0
ARC
  8
0
 10
       52.379913
 20
      -83.652588
 30
        0.000000
 40
        0.999900
 50
        5.000644
 51
       73.736328
  0
LINE
  8
0
 10
       47.950226
 20
      -84.412598
 30
        0.000000
 11
       53.450226
 21
      -84.412598
 31
        0.000000
  0
LINE
  8
0
 10
       53.450226
 20
      -84.412598
 30
        0.000000
 11
       53.376007
 21
      -83.565430
 31
        0.000000
  0
LINE
  8
0
 10
       54.049835
 20
      -84.412598
 30
        0.000000
 11
       47.349640
 21
      -84.412598
 31
        0.000000
  0
ARC
  8
0
 10
       49.020538
 20
      -83.652588
 30
        0.000000
 40
        1.000020
 50
      106.247049
 51
      174.999518
  0
LINE
  8
0
 10
       47.950226
 20
      -84.412598
 30
        0.000000
 11
       48.024445
 21
      -83.565430
 31
        0.000000
  0
LINE
  8
0
 10
       47.349640
 20
      -85.812622
 30
        0.000000
 11
       47.349640
 21
      -84.412598
 31
        0.000000
  0
LINE
  8
0
 10
       54.049835
 20
      -85.812622
 30
        0.000000
 11
       54.049835
 21
      -84.412598
 31
        0.000000
  0
LINE
  8
0
 10
       54.049835
 20
      -85.812622
 30
        0.000000
 11
       47.349640
 21
      -85.812622
 31
        0.000000
  0
ARC
  8
0
 10
       41.800323
 20
      -89.412598
 30
        0.000000
 40
        7.000010
 50
       73.742229
 51
      106.257759
  0
ARC
  8
0
 10
       43.480011
 20
      -83.652588
 30
        0.000000
 40
        0.999900
 50
        5.000644
 51
       73.750985
  0
LINE
  8
0
 10
       39.050323
 20
      -84.412598
 30
        0.000000
 11
       44.550323
 21
      -84.412598
 31
        0.000000
  0
LINE
  8
0
 10
       44.550323
 20
      -84.412598
 30
        0.000000
 11
       44.476105
 21
      -83.565308
 31
        0.000000
  0
LINE
  8
0
 10
       45.149445
 20
      -84.412598
 30
        0.000000
 11
       38.449738
 21
      -84.412598
 31
        0.000000
  0
ARC
  8
0
 10
       40.120636
 20
      -83.652588
 30
        0.000000
 40
        1.000088
 50
      106.260478
 51
      174.993726
  0
LINE
  8
0
 10
       39.050323
 20
      -84.412598
 30
        0.000000
 11
       39.124054
 21
      -83.565308
 31
        0.000000
  0
LINE
  8
0
 10
       38.449738
 20
      -85.812500
 30
        0.000000
 11
       38.449738
 21
      -84.412598
 31
        0.000000
  0
LINE
  8
0
 10
       45.149445
 20
      -85.812500
 30
        0.000000
 11
       45.149445
 21
      -84.412598
 31
        0.000000
  0
LINE
  8
0
 10
       45.149445
 20
      -85.812500
 30
        0.000000
 11
       38.449738
 21
      -85.812500
 31
        0.000000
  0
ARC
  8
0
 10
       32.899933
 20
      -89.412598
 30
        0.000000
 40
        7.000010
 50
       73.742229
 51
      106.257759
  0
ARC
  8
0
 10
       34.579620
 20
      -83.652466
 30
        0.000000
 40
        0.999900
 50
        5.000644
 51
       73.736328
  0
LINE
  8
0
 10
       30.149933
 20
      -84.412598
 30
        0.000000
 11
       35.649933
 21
      -84.412598
 31
        0.000000
  0
LINE
  8
0
 10
       35.649933
 20
      -84.412598
 30
        0.000000
 11
       35.576202
 21
      -83.565186
 31
        0.000000
  0
LINE
  8
0
 10
       36.249542
 20
      -84.412476
 30
        0.000000
 11
       29.549835
 21
      -84.412476
 31
        0.000000
  0
ARC
  8
0
 10
       31.220245
 20
      -83.652466
 30
        0.000000
 40
        1.000020
 50
      106.247049
 51
      174.999518
  0
LINE
  8
0
 10
       30.149933
 20
      -84.412598
 30
        0.000000
 11
       30.224152
 21
      -83.565186
 31
        0.000000
  0
LINE
  8
0
 10
       29.549835
 20
      -85.812500
 30
        0.000000
 11
       29.549835
 21
      -84.412476
 31
        0.000000
  0
LINE
  8
0
 10
       36.249542
 20
      -85.812500
 30
        0.000000
 11
       36.249542
 21
      -84.412476
 31
        0.000000
  0
LINE
  8
0
 10
       36.249542
 20
      -85.812500
 30
        0.000000
 11
       29.549835
 21
      -85.812500
 31
        0.000000
  0
ARC
  8
0
 10
       24.000031
 20
      -89.412476
 30
        0.000000
 40
        7.000010
 50
       73.742229
 51
      106.255662
  0
ARC
  8
0
 10
       25.679718
 20
      -83.652344
 30
        0.000000
 40
        1.000143
 50
        4.999425
 51
       73.740371
  0
LINE
  8
0
 10
       21.250031
 20
      -84.412476
 30
        0.000000
 11
       26.750031
 21
      -84.412476
 31
        0.000000
  0
LINE
  8
0
 10
       26.750031
 20
      -84.412476
 30
        0.000000
 11
       26.676300
 21
      -83.565186
 31
        0.000000
  0
LINE
  8
0
 10
       27.349640
 20
      -84.412354
 30
        0.000000
 11
       20.649933
 21
      -84.412354
 31
        0.000000
  0
ARC
  8
0
 10
       22.320343
 20
      -83.652344
 30
        0.000000
 40
        1.000020
 50
      106.247049
 51
      174.992551
  0
LINE
  8
0
 10
       21.250031
 20
      -84.412476
 30
        0.000000
 11
       21.324249
 21
      -83.565186
 31
        0.000000
  0
LINE
  8
0
 10
       20.649933
 20
      -85.812500
 30
        0.000000
 11
       20.649933
 21
      -84.412354
 31
        0.000000
  0
LINE
  8
0
 10
       27.349640
 20
      -85.812500
 30
        0.000000
 11
       27.349640
 21
      -84.412354
 31
        0.000000
  0
LINE
  8
0
 10
       27.349640
 20
      -85.812500
 30
        0.000000
 11
       20.649933
 21
      -85.812500
 31
        0.000000
  0
ARC
  8
0
 10
       15.100128
 20
      -89.412354
 30
        0.000000
 40
        7.000010
 50
       73.742229
 51
      106.257759
  0
ARC
  8
0
 10
       16.779816
 20
      -83.652344
 30
        0.000000
 40
        0.999900
 50
        5.000644
 51
       73.736328
  0
LINE
  8
0
 10
       12.350128
 20
      -84.412354
 30
        0.000000
 11
       17.850128
 21
      -84.412354
 31
        0.000000
  0
LINE
  8
0
 10
       17.850128
 20
      -84.412354
 30
        0.000000
 11
       17.775909
 21
      -83.565186
 31
        0.000000
  0
LINE
  8
0
 10
       18.449738
 20
      -84.412354
 30
        0.000000
 11
       11.749542
 21
      -84.412354
 31
        0.000000
  0
ARC
  8
0
 10
       13.420441
 20
      -83.652344
 30
        0.000000
 40
        1.000020
 50
      106.247049
 51
      174.999518
  0
LINE
  8
0
 10
       12.350128
 20
      -84.412354
 30
        0.000000
 11
       12.424347
 21
      -83.565186
 31
        0.000000
  0
LINE
  8
0
 10
       11.749542
 20
      -85.812378
 30
        0.000000
 11
       11.749542
 21
      -84.412354
 31
        0.000000
  0
LINE
  8
0
 10
       18.449738
 20
      -85.812378
 30
        0.000000
 11
       18.449738
 21
      -84.412354
 31
        0.000000
  0
LINE
  8
0
 10
       18.449738
 20
      -85.812378
 30
        0.000000
 11
       11.749542
 21
      -85.812378
 31
        0.000000
  0
ARC
  8
0
 10
        6.200226
 20
      -89.412354
 30
        0.000000
 40
        7.000010
 50
       73.742229
 51
      106.257759
  0
ARC
  8
0
 10
        7.879913
 20
      -83.652344
 30
        0.000000
 40
        0.999900
 50
        5.000644
 51
       73.750985
  0
LINE
  8
0
 10
        3.450226
 20
      -84.412354
 30
        0.000000
 11
        8.950226
 21
      -84.412354
 31
        0.000000
  0
LINE
  8
0
 10
        8.950226
 20
      -84.412354
 30
        0.000000
 11
        8.876007
 21
      -83.565063
 31
        0.000000
  0
LINE
  8
0
 10
        9.549835
 20
      -84.412354
 30
        0.000000
 11
        2.849640
 21
      -84.412354
 31
        0.000000
  0
ARC
  8
0
 10
        4.520538
 20
      -83.652344
 30
        0.000000
 40
        1.000088
 50
      106.260478
 51
      174.993726
  0
LINE
  8
0
 10
        3.450226
 20
      -84.412354
 30
        0.000000
 11
        3.524445
 21
      -83.565063
 31
        0.000000
  0
LINE
  8
0
 10
        2.849640
 20
      -85.812256
 30
        0.000000
 11
        2.849640
 21
      -84.412354
 31
        0.000000
  0
LINE
  8
0
 10
        9.549835
 20
      -85.812256
 30
        0.000000
 11
        9.549835
 21
      -84.412354
 31
        0.000000
  0
LINE
  8
0
 10
        9.549835
 20
      -85.812256
 30
        0.000000
 11
        2.849640
 21
      -85.812256
 31
        0.000000
  0
ARC
  8
0
 10
       -2.699677
 20
      -89.412354
 30
        0.000000
 40
        7.000010
 50
       73.742229
 51
      106.257759
  0
ARC
  8
0
 10
       -1.019989
 20
      -83.652222
 30
        0.000000
 40
        0.999900
 50
        5.000644
 51
       73.736328
  0
LINE
  8
0
 10
       -5.449677
 20
      -84.412354
 30
        0.000000
 11
        0.050323
 21
      -84.412354
 31
        0.000000
  0
LINE
  8
0
 10
        0.050323
 20
      -84.412354
 30
        0.000000
 11
       -0.023895
 21
      -83.564941
 31
        0.000000
  0
LINE
  8
0
 10
        0.649933
 20
      -84.412231
 30
        0.000000
 11
       -6.050262
 21
      -84.412231
 31
        0.000000
  0
ARC
  8
0
 10
       -4.379364
 20
      -83.652222
 30
        0.000000
 40
        1.000020
 50
      106.247049
 51
      174.999518
  0
LINE
  8
0
 10
       -5.449677
 20
      -84.412354
 30
        0.000000
 11
       -5.375458
 21
      -83.564941
 31
        0.000000
  0
LINE
  8
0
 10
       -6.050262
 20
      -85.812256
 30
        0.000000
 11
       -6.050262
 21
      -84.412231
 31
        0.000000
  0
LINE
  8
0
 10
        0.649933
 20
      -85.812256
 30
        0.000000
 11
        0.649933
 21
      -84.412231
 31
        0.000000
  0
LINE
  8
0
 10
        0.649933
 20
      -85.812256
 30
        0.000000
 11
       -6.050262
 21
      -85.812256
 31
        0.000000
  0
ARC
  8
0
 10
      -11.599579
 20
      -89.412231
 30
        0.000000
 40
        7.000010
 50
       73.742229
 51
      106.255662
  0
ARC
  8
0
 10
       -9.919891
 20
      -83.652100
 30
        0.000000
 40
        1.000143
 50
        4.999425
 51
       73.740371
  0
LINE
  8
0
 10
      -14.349579
 20
      -84.412231
 30
        0.000000
 11
       -8.849579
 21
      -84.412231
 31
        0.000000
  0
LINE
  8
0
 10
       -8.849579
 20
      -84.412231
 30
        0.000000
 11
       -8.923798
 21
      -83.564941
 31
        0.000000
  0
LINE
  8
0
 10
       -8.249969
 20
      -84.412109
 30
        0.000000
 11
      -14.950165
 21
      -84.412109
 31
        0.000000
  0
ARC
  8
0
 10
      -13.279266
 20
      -83.652100
 30
        0.000000
 40
        1.000020
 50
      106.247049
 51
      174.992551
  0
LINE
  8
0
 10
      -14.349579
 20
      -84.412231
 30
        0.000000
 11
      -14.275360
 21
      -83.564941
 31
        0.000000
  0
LINE
  8
0
 10
      -14.950165
 20
      -85.812256
 30
        0.000000
 11
      -14.950165
 21
      -84.412109
 31
        0.000000
  0
LINE
  8
0
 10
       -8.249969
 20
      -85.812256
 30
        0.000000
 11
       -8.249969
 21
      -84.412109
 31
        0.000000
  0
LINE
  8
0
 10
       -8.249969
 20
      -85.812256
 30
        0.000000
 11
      -14.950165
 21
      -85.812256
 31
        0.000000
  0
ARC
  8
0
 10
      -32.899872
 20
      -89.412598
 30
        0.000000
 40
        7.000010
 50
       73.742229
 51
      106.257759
  0
ARC
  8
0
 10
      -31.220184
 20
      -83.652588
 30
        0.000000
 40
        0.999900
 50
        5.000644
 51
       73.736328
  0
LINE
  8
0
 10
      -35.649872
 20
      -84.412598
 30
        0.000000
 11
      -30.149872
 21
      -84.412598
 31
        0.000000
  0
LINE
  8
0
 10
      -30.149872
 20
      -84.412598
 30
        0.000000
 11
      -30.223602
 21
      -83.565308
 31
        0.000000
  0
LINE
  8
0
 10
      -29.550262
 20
      -84.412598
 30
        0.000000
 11
      -36.249969
 21
      -84.412598
 31
        0.000000
  0
ARC
  8
0
 10
      -34.579559
 20
      -83.652588
 30
        0.000000
 40
        1.000020
 50
      106.247049
 51
      174.999518
  0
LINE
  8
0
 10
      -35.649872
 20
      -84.412598
 30
        0.000000
 11
      -35.575653
 21
      -83.565308
 31
        0.000000
  0
LINE
  8
0
 10
      -36.249969
 20
      -85.812500
 30
        0.000000
 11
      -36.249969
 21
      -84.412598
 31
        0.000000
  0
LINE
  8
0
 10
      -29.550262
 20
      -85.812500
 30
        0.000000
 11
      -29.550262
 21
      -84.412598
 31
        0.000000
  0
LINE
  8
0
 10
      -29.550262
 20
      -85.812500
 30
        0.000000
 11
      -36.249969
 21
      -85.812500
 31
        0.000000
  0
ARC
  8
0
 10
      -20.499481
 20
      -89.412109
 30
        0.000000
 40
        7.000010
 50
       73.742229
 51
      106.257759
  0
ARC
  8
0
 10
      -18.819794
 20
      -83.652100
 30
        0.000000
 40
        0.999900
 50
        5.000644
 51
       73.736328
  0
LINE
  8
0
 10
      -23.249481
 20
      -84.412109
 30
        0.000000
 11
      -17.749481
 21
      -84.412109
 31
        0.000000
  0
LINE
  8
0
 10
      -17.749481
 20
      -84.412109
 30
        0.000000
 11
      -17.823700
 21
      -83.564941
 31
        0.000000
  0
LINE
  8
0
 10
      -17.149872
 20
      -84.412109
 30
        0.000000
 11
      -23.850067
 21
      -84.412109
 31
        0.000000
  0
ARC
  8
0
 10
      -22.179169
 20
      -83.652100
 30
        0.000000
 40
        1.000020
 50
      106.247049
 51
      174.999518
  0
LINE
  8
0
 10
      -23.249481
 20
      -84.412109
 30
        0.000000
 11
      -23.175262
 21
      -83.564941
 31
        0.000000
  0
LINE
  8
0
 10
      -23.850067
 20
      -85.812134
 30
        0.000000
 11
      -23.850067
 21
      -84.412109
 31
        0.000000
  0
LINE
  8
0
 10
      -17.149872
 20
      -85.812134
 30
        0.000000
 11
      -17.149872
 21
      -84.412109
 31
        0.000000
  0
LINE
  8
0
 10
      -17.149872
 20
      -85.812134
 30
        0.000000
 11
      -23.850067
 21
      -85.812134
 31
        0.000000
  0
ARC
  8
0
 10
      -41.799774
 20
      -89.412598
 30
        0.000000
 40
        7.000010
 50
       73.742229
 51
      106.257759
  0
ARC
  8
0
 10
      -40.120087
 20
      -83.652588
 30
        0.000000
 40
        0.999900
 50
        5.000644
 51
       73.736328
  0
LINE
  8
0
 10
      -44.549774
 20
      -84.412598
 30
        0.000000
 11
      -39.049774
 21
      -84.412598
 31
        0.000000
  0
LINE
  8
0
 10
      -39.049774
 20
      -84.412598
 30
        0.000000
 11
      -39.123993
 21
      -83.565308
 31
        0.000000
  0
LINE
  8
0
 10
      -38.450165
 20
      -84.412598
 30
        0.000000
 11
      -45.150360
 21
      -84.412598
 31
        0.000000
  0
ARC
  8
0
 10
      -43.479462
 20
      -83.652588
 30
        0.000000
 40
        1.000020
 50
      106.247049
 51
      174.999518
  0
LINE
  8
0
 10
      -44.549774
 20
      -84.412598
 30
        0.000000
 11
      -44.475555
 21
      -83.565308
 31
        0.000000
  0
LINE
  8
0
 10
      -45.150360
 20
      -85.812500
 30
        0.000000
 11
      -45.150360
 21
      -84.412598
 31
        0.000000
  0
LINE
  8
0
 10
      -38.450165
 20
      -85.812500
 30
        0.000000
 11
      -38.450165
 21
      -84.412598
 31
        0.000000
  0
LINE
  8
0
 10
      -38.450165
 20
      -85.812500
 30
        0.000000
 11
      -45.150360
 21
      -85.812500
 31
        0.000000
  0
ARC
  8
0
 10
      -50.699677
 20
      -89.412598
 30
        0.000000
 40
        7.000010
 50
       73.742229
 51
      106.257759
  0
ARC
  8
0
 10
      -49.019989
 20
      -83.652588
 30
        0.000000
 40
        0.999900
 50
        5.000644
 51
       73.735488
  0
LINE
  8
0
 10
      -53.449677
 20
      -84.412598
 30
        0.000000
 11
      -47.949677
 21
      -84.412598
 31
        0.000000
  0
LINE
  8
0
 10
      -47.949677
 20
      -84.412598
 30
        0.000000
 11
      -48.023895
 21
      -83.565308
 31
        0.000000
  0
LINE
  8
0
 10
      -47.350067
 20
      -84.412598
 30
        0.000000
 11
      -54.050262
 21
      -84.412598
 31
        0.000000
  0
ARC
  8
0
 10
      -52.379364
 20
      -83.652588
 30
        0.000000
 40
        1.000020
 50
      106.247049
 51
      174.999518
  0
LINE
  8
0
 10
      -53.449677
 20
      -84.412598
 30
        0.000000
 11
      -53.375458
 21
      -83.565308
 31
        0.000000
  0
LINE
  8
0
 10
      -54.050262
 20
      -85.812500
 30
        0.000000
 11
      -54.050262
 21
      -84.412598
 31
        0.000000
  0
LINE
  8
0
 10
      -47.350067
 20
      -85.812500
 30
        0.000000
 11
      -47.350067
 21
      -84.412598
 31
        0.000000
  0
LINE
  8
0
 10
      -47.350067
 20
      -85.812500
 30
        0.000000
 11
      -54.050262
 21
      -85.812500
 31
        0.000000
  0
LINE
  8
0
 10
       43.500031
 20
      -85.812744
 30
        0.000000
 11
       62.500031
 21
      -85.812744
 31
        0.000000
  0
LINE
  8
0
 10
      -46.987762
 20
      -86.812256
 30
        0.000000
 11
      -46.825653
 21
      -77.512451
 31
        0.000000
  0
LINE
  8
0
 10
      -45.512177
 20
      -86.812256
 30
        0.000000
 11
      -45.674286
 21
      -77.512451
 31
        0.000000
  0
LINE
  8
0
 10
      -38.087372
 20
      -86.812256
 30
        0.000000
 11
      -37.925262
 21
      -77.512451
 31
        0.000000
  0
LINE
  8
0
 10
      -36.612274
 20
      -86.812256
 30
        0.000000
 11
      -36.774384
 21
      -77.512451
 31
        0.000000
  0
LINE
  8
0
 10
      -29.187469
 20
      -86.812256
 30
        0.000000
 11
      -29.025360
 21
      -77.512451
 31
        0.000000
  0
LINE
  8
0
 10
      -24.212372
 20
      -86.812256
 30
        0.000000
 11
      -24.374481
 21
      -77.512451
 31
        0.000000
  0
LINE
  8
0
 10
      -16.787567
 20
      -86.812256
 30
        0.000000
 11
      -16.625458
 21
      -77.512451
 31
        0.000000
  0
LINE
  8
0
 10
      -15.311981
 20
      -86.812256
 30
        0.000000
 11
      -15.474579
 21
      -77.512451
 31
        0.000000
  0
LINE
  8
0
 10
       -6.412079
 20
      -86.812256
 30
        0.000000
 11
       -6.574677
 21
      -77.512451
 31
        0.000000
  0
LINE
  8
0
 10
       -7.887665
 20
      -86.812256
 30
        0.000000
 11
       -7.725067
 21
      -77.512451
 31
        0.000000
  0
LINE
  8
0
 10
        1.012726
 20
      -86.812256
 30
        0.000000
 11
        1.174835
 21
      -77.512451
 31
        0.000000
  0
LINE
  8
0
 10
        2.487823
 20
      -86.812256
 30
        0.000000
 11
        2.325714
 21
      -77.512451
 31
        0.000000
  0
LINE
  8
0
 10
        9.912140
 20
      -86.812256
 30
        0.000000
 11
       10.074738
 21
      -77.512451
 31
        0.000000
  0
LINE
  8
0
 10
       11.387726
 20
      -86.812256
 30
        0.000000
 11
       11.225616
 21
      -77.512451
 31
        0.000000
  0
LINE
  8
0
 10
       20.287628
 20
      -86.812256
 30
        0.000000
 11
       20.125519
 21
      -77.512451
 31
        0.000000
  0
LINE
  8
0
 10
       18.812531
 20
      -86.812256
 30
        0.000000
 11
       18.974640
 21
      -77.512451
 31
        0.000000
  0
LINE
  8
0
 10
       27.712433
 20
      -86.812256
 30
        0.000000
 11
       27.874542
 21
      -77.512451
 31
        0.000000
  0
LINE
  8
0
 10
       29.188019
 20
      -86.812256
 30
        0.000000
 11
       29.025421
 21
      -77.512451
 31
        0.000000
  0
LINE
  8
0
 10
       36.612335
 20
      -86.812256
 30
        0.000000
 11
       36.774933
 21
      -77.512451
 31
        0.000000
  0
LINE
  8
0
 10
       38.087921
 20
      -86.812256
 30
        0.000000
 11
       37.925323
 21
      -77.512451
 31
        0.000000
  0
LINE
  8
0
 10
       45.512726
 20
      -86.812256
 30
        0.000000
 11
       45.674835
 21
      -77.512451
 31
        0.000000
  0
LINE
  8
0
 10
       46.987823
 20
      -86.812256
 30
        0.000000
 11
       46.825714
 21
      -77.512451
 31
        0.000000
  0
LINE
  8
0
 10
      -45.665497
 20
      -77.512451
 30
        0.000000
 11
      -46.834442
 21
      -77.512451
 31
        0.000000
  0
LINE
  8
0
 10
      -36.765594
 20
      -77.512451
 30
        0.000000
 11
      -37.934052
 21
      -77.512451
 31
        0.000000
  0
LINE
  8
0
 10
      -24.365692
 20
      -77.512451
 30
        0.000000
 11
      -29.034149
 21
      -77.512451
 31
        0.000000
  0
LINE
  8
0
 10
      -15.465790
 20
      -77.512451
 30
        0.000000
 11
      -16.634247
 21
      -77.512451
 31
        0.000000
  0
LINE
  8
0
 10
       -6.565887
 20
      -77.512451
 30
        0.000000
 11
       -7.733856
 21
      -77.512451
 31
        0.000000
  0
LINE
  8
0
 10
        2.334503
 20
      -77.512451
 30
        0.000000
 11
        1.166046
 21
      -77.512451
 31
        0.000000
  0
LINE
  8
0
 10
       11.234406
 20
      -77.512451
 30
        0.000000
 11
       10.065948
 21
      -77.512451
 31
        0.000000
  0
LINE
  8
0
 10
       20.134308
 20
      -77.512451
 30
        0.000000
 11
       18.965851
 21
      -77.512451
 31
        0.000000
  0
LINE
  8
0
 10
       29.034210
 20
      -77.512451
 30
        0.000000
 11
       27.865753
 21
      -77.512451
 31
        0.000000
  0
LINE
  8
0
 10
       37.934113
 20
      -77.512451
 30
        0.000000
 11
       36.766144
 21
      -77.512451
 31
        0.000000
  0
LINE
  8
0
 10
       46.834503
 20
      -77.512451
 30
        0.000000
 11
       45.666046
 21
      -77.512451
 31
        0.000000
  0
LINE
  8
0
 10
       70.000031
 20
      -86.312134
 30
        0.000000
 11
       54.420929
 21
      -86.312134
 31
        0.000000
  0
LINE
  8
0
 10
       24.750031
 20
     -113.812256
 30
        0.000000
 11
       24.750031
 21
     -111.812256
 31
        0.000000
  0
LINE
  8
0
 10
       24.750031
 20
     -117.812256
 30
        0.000000
 11
       24.750031
 21
     -115.812256
 31
        0.000000
  0
LINE
  8
0
 10
       30.250031
 20
     -113.812256
 30
        0.000000
 11
       30.250031
 21
     -111.812256
 31
        0.000000
  0
LINE
  8
0
 10
       30.250031
 20
     -117.812256
 30
        0.000000
 11
       30.250031
 21
     -115.812256
 31
        0.000000
  0
LINE
  8
0
 10
       55.000031
 20
     -113.812256
 30
        0.000000
 11
       55.000031
 21
     -111.812256
 31
        0.000000
  0
LINE
  8
0
 10
       55.000031
 20
     -117.812256
 30
        0.000000
 11
       55.000031
 21
     -115.812256
 31
        0.000000
  0
LINE
  8
0
 10
       55.000031
 20
     -109.812256
 30
        0.000000
 11
       55.000031
 21
     -107.812256
 31
        0.000000
  0
LINE
  8
0
 10
       30.250031
 20
     -109.812256
 30
        0.000000
 11
       30.250031
 21
     -107.812256
 31
        0.000000
  0
LINE
  8
0
 10
       24.750031
 20
     -109.812256
 30
        0.000000
 11
       24.750031
 21
     -107.812256
 31
        0.000000
  0
LINE
  8
0
 10
       24.750031
 20
     -105.812256
 30
        0.000000
 11
       24.750031
 21
     -103.812256
 31
        0.000000
  0
LINE
  8
0
 10
       30.250031
 20
     -105.812256
 30
        0.000000
 11
       30.250031
 21
     -103.812256
 31
        0.000000
  0
LINE
  8
0
 10
       55.000031
 20
     -105.812256
 30
        0.000000
 11
       55.000031
 21
     -103.812256
 31
        0.000000
  0
LINE
  8
0
 10
       30.250031
 20
     -101.812256
 30
        0.000000
 11
       30.250031
 21
      -99.812256
 31
        0.000000
  0
LINE
  8
0
 10
       24.750031
 20
     -101.812256
 30
        0.000000
 11
       24.750031
 21
      -99.812256
 31
        0.000000
  0
LINE
  8
0
 10
       55.000031
 20
     -101.812256
 30
        0.000000
 11
       55.000031
 21
      -99.812256
 31
        0.000000
  0
LINE
  8
0
 10
       69.600128
 20
      -85.812134
 30
        0.000000
 11
       53.500031
 21
      -85.812134
 31
        0.000000
  0
LINE
  8
0
 10
       69.600128
 20
      -86.312134
 30
        0.000000
 11
       69.600128
 21
      -85.812256
 31
        0.000000
  0
LINE
  8
0
 10
      -24.200165
 20
      -86.812256
 30
        0.000000
 11
      -16.799774
 21
      -86.812256
 31
        0.000000
  0
LINE
  8
0
 10
      -16.799774
 20
      -85.812256
 30
        0.000000
 11
      -24.200165
 21
      -85.812256
 31
        0.000000
  0
LINE
  8
0
 10
       -7.899872
 20
      -85.812256
 30
        0.000000
 11
      -15.299774
 21
      -85.812256
 31
        0.000000
  0
LINE
  8
0
 10
      -15.299774
 20
      -86.812256
 30
        0.000000
 11
       -7.899872
 21
      -86.812256
 31
        0.000000
  0
LINE
  8
0
 10
        1.000031
 20
      -85.812256
 30
        0.000000
 11
       -6.399872
 21
      -85.812256
 31
        0.000000
  0
LINE
  8
0
 10
       -6.399872
 20
      -86.812256
 30
        0.000000
 11
        1.000031
 21
      -86.812256
 31
        0.000000
  0
LINE
  8
0
 10
        9.899933
 20
      -85.812256
 30
        0.000000
 11
        2.500031
 21
      -85.812256
 31
        0.000000
  0
LINE
  8
0
 10
        2.500031
 20
      -86.812256
 30
        0.000000
 11
        9.899933
 21
      -86.812256
 31
        0.000000
  0
LINE
  8
0
 10
       18.799835
 20
      -85.812256
 30
        0.000000
 11
       11.399933
 21
      -85.812256
 31
        0.000000
  0
LINE
  8
0
 10
       11.399933
 20
      -86.812256
 30
        0.000000
 11
       18.799835
 21
      -86.812256
 31
        0.000000
  0
LINE
  8
0
 10
       27.700226
 20
      -85.812256
 30
        0.000000
 11
       20.299835
 21
      -85.812256
 31
        0.000000
  0
LINE
  8
0
 10
       20.299835
 20
      -86.812256
 30
        0.000000
 11
       27.700226
 21
      -86.812256
 31
        0.000000
  0
LINE
  8
0
 10
       36.600128
 20
      -85.812256
 30
        0.000000
 11
       29.200226
 21
      -85.812256
 31
        0.000000
  0
LINE
  8
0
 10
       29.200226
 20
      -86.812256
 30
        0.000000
 11
       36.600128
 21
      -86.812256
 31
        0.000000
  0
LINE
  8
0
 10
       45.500031
 20
      -85.812256
 30
        0.000000
 11
       38.100128
 21
      -85.812256
 31
        0.000000
  0
LINE
  8
0
 10
       38.100128
 20
      -86.812256
 30
        0.000000
 11
       45.500031
 21
      -86.812256
 31
        0.000000
  0
LINE
  8
0
 10
       54.399933
 20
      -85.812256
 30
        0.000000
 11
       47.000031
 21
      -85.812256
 31
        0.000000
  0
LINE
  8
0
 10
       47.000031
 20
      -86.812256
 30
        0.000000
 11
       54.399933
 21
      -86.812256
 31
        0.000000
  0
LINE
  8
0
 10
       70.000031
 20
     -125.812256
 30
        0.000000
 11
      -69.999969
 21
     -125.812256
 31
        0.000000
  0
LINE
  8
0
 10
      -24.749969
 20
     -113.812256
 30
        0.000000
 11
      -24.749969
 21
     -111.812256
 31
        0.000000
  0
LINE
  8
0
 10
      -24.749969
 20
     -117.812256
 30
        0.000000
 11
      -24.749969
 21
     -115.812256
 31
        0.000000
  0
LINE
  8
0
 10
      -24.749969
 20
     -109.812256
 30
        0.000000
 11
      -24.749969
 21
     -107.812256
 31
        0.000000
  0
LINE
  8
0
 10
      -24.749969
 20
     -105.812256
 30
        0.000000
 11
      -24.749969
 21
     -103.812256
 31
        0.000000
  0
LINE
  8
0
 10
      -24.749969
 20
     -101.812256
 30
        0.000000
 11
      -24.749969
 21
      -99.812256
 31
        0.000000
  0
LINE
  8
0
 10
      -54.999969
 20
     -117.812256
 30
        0.000000
 11
      -54.999969
 21
     -115.812256
 31
        0.000000
  0
LINE
  8
0
 10
      -30.249969
 20
     -113.812256
 30
        0.000000
 11
      -30.249969
 21
     -111.812256
 31
        0.000000
  0
LINE
  8
0
 10
      -30.249969
 20
     -117.812256
 30
        0.000000
 11
      -30.249969
 21
     -115.812256
 31
        0.000000
  0
LINE
  8
0
 10
      -30.249969
 20
     -109.812256
 30
        0.000000
 11
      -30.249969
 21
     -107.812256
 31
        0.000000
  0
LINE
  8
0
 10
      -30.249969
 20
     -105.812256
 30
        0.000000
 11
      -30.249969
 21
     -103.812256
 31
        0.000000
  0
LINE
  8
0
 10
      -30.249969
 20
     -101.812256
 30
        0.000000
 11
      -30.249969
 21
      -99.812256
 31
        0.000000
  0
LINE
  8
0
 10
      -53.499969
 20
      -85.812256
 30
        0.000000
 11
      -69.600067
 21
      -85.812256
 31
        0.000000
  0
LINE
  8
0
 10
      -69.600067
 20
      -86.312256
 30
        0.000000
 11
      -69.600067
 21
      -85.812256
 31
        0.000000
  0
LINE
  8
0
 10
      -54.399872
 20
      -86.312256
 30
        0.000000
 11
      -69.999969
 21
      -86.312256
 31
        0.000000
  0
LINE
  8
0
 10
      -46.999969
 20
      -85.812256
 30
        0.000000
 11
      -54.399872
 21
      -85.812256
 31
        0.000000
  0
LINE
  8
0
 10
      -54.399872
 20
      -86.812256
 30
        0.000000
 11
      -46.999969
 21
      -86.812256
 31
        0.000000
  0
LINE
  8
0
 10
      -38.100067
 20
      -85.812256
 30
        0.000000
 11
      -45.499969
 21
      -85.812256
 31
        0.000000
  0
LINE
  8
0
 10
      -45.499969
 20
      -86.812256
 30
        0.000000
 11
      -38.100067
 21
      -86.812256
 31
        0.000000
  0
LINE
  8
0
 10
      -29.200165
 20
      -85.812256
 30
        0.000000
 11
      -36.600067
 21
      -85.812256
 31
        0.000000
  0
LINE
  8
0
 10
      -36.600067
 20
      -86.812256
 30
        0.000000
 11
      -29.200165
 21
      -86.812256
 31
        0.000000
  0
LINE
  8
0
 10
      -48.999969
 20
      -66.725708
 30
        0.000000
 11
      -48.999969
 21
      -64.611816
 31
        0.000000
  0
CIRCLE
  8
0
 10
       61.999969
 20
      -33.900024
 30
        0.000000
 40
        2.000000
  0
CIRCLE
  8
0
 10
      -61.999969
 20
       33.899902
 30
        0.000000
 40
        2.000000
  0
LINE
  8
0
 10
       54.399929
 20
      -86.812256
 30
        0.000000
 11
       54.399929
 21
      -85.812134
 31
        0.000000
  0
LINE
  8
0
 10
       70.000031
 20
      -99.812256
 30
        0.000000
 11
      -17.999969
 21
      -99.812256
 31
        0.000000
  0
LINE
  8
0
 10
       70.000031
 20
     -103.812256
 30
        0.000000
 11
       18.000031
 21
     -103.812256
 31
        0.000000
  0
LINE
  8
0
 10
       70.000031
 20
     -101.812256
 30
        0.000000
 11
       18.000031
 21
     -101.812256
 31
        0.000000
  0
LINE
  8
0
 10
       70.000031
 20
     -107.812256
 30
        0.000000
 11
       18.000031
 21
     -107.812256
 31
        0.000000
  0
LINE
  8
0
 10
       70.000031
 20
     -105.812256
 30
        0.000000
 11
       18.000031
 21
     -105.812256
 31
        0.000000
  0
LINE
  8
0
 10
       70.000031
 20
     -109.812256
 30
        0.000000
 11
       18.000031
 21
     -109.812256
 31
        0.000000
  0
LINE
  8
0
 10
       70.000031
 20
     -111.812256
 30
        0.000000
 11
       18.000031
 21
     -111.812256
 31
        0.000000
  0
LINE
  8
0
 10
       70.000031
 20
     -113.812256
 30
        0.000000
 11
       18.000031
 21
     -113.812256
 31
        0.000000
  0
LINE
  8
0
 10
       70.000031
 20
     -115.812256
 30
        0.000000
 11
       18.000031
 21
     -115.812256
 31
        0.000000
  0
LINE
  8
0
 10
       70.000031
 20
     -117.812256
 30
        0.000000
 11
      -17.999969
 21
     -117.812256
 31
        0.000000
  0
LINE
  8
0
 10
      -17.999969
 20
      -99.812256
 30
        0.000000
 11
      -69.999969
 21
      -99.812256
 31
        0.000000
  0
LINE
  8
0
 10
      -17.999969
 20
     -101.812256
 30
        0.000000
 11
      -69.999969
 21
     -101.812256
 31
        0.000000
  0
LINE
  8
0
 10
      -17.999969
 20
     -107.812256
 30
        0.000000
 11
      -69.999969
 21
     -107.812256
 31
        0.000000
  0
LINE
  8
0
 10
      -17.999969
 20
     -109.812256
 30
        0.000000
 11
      -69.999969
 21
     -109.812256
 31
        0.000000
  0
LINE
  8
0
 10
      -17.999969
 20
     -105.812256
 30
        0.000000
 11
      -69.999969
 21
     -105.812256
 31
        0.000000
  0
LINE
  8
0
 10
      -17.999969
 20
     -103.812256
 30
        0.000000
 11
      -69.999969
 21
     -103.812256
 31
        0.000000
  0
LINE
  8
0
 10
      -17.999969
 20
     -111.812256
 30
        0.000000
 11
      -69.999969
 21
     -111.812256
 31
        0.000000
  0
LINE
  8
0
 10
      -17.999969
 20
     -113.812256
 30
        0.000000
 11
      -69.999969
 21
     -113.812256
 31
        0.000000
  0
LINE
  8
0
 10
      -17.999969
 20
     -115.812256
 30
        0.000000
 11
      -69.999969
 21
     -115.812256
 31
        0.000000
  0
LINE
  8
0
 10
      -17.999969
 20
     -117.812256
 30
        0.000000
 11
      -69.999969
 21
     -117.812256
 31
        0.000000
  0
LINE
  8
0
 10
      -54.545135
 20
      -77.512085
 30
        0.000000
 11
       69.564972
 21
      -77.512085
 31
        0.000000
  0
LINE
  8
0
 10
      -69.999969
 20
      -91.812302
 30
        0.000000
 11
       70.000031
 21
      -91.812302
 31
        0.000000
  0
LINE
  8
0
 10
      -69.999969
 20
      -93.812302
 30
        0.000000
 11
       70.000031
 21
      -93.812302
 31
        0.000000
  0
LINE
  8
0
 10
      -69.999969
 20
      -95.812302
 30
        0.000000
 11
       70.000031
 21
      -95.812302
 31
        0.000000
  0
LINE
  8
0
 10
      -69.999969
 20
      -97.812302
 30
        0.000000
 11
       70.000031
 21
      -97.812302
 31
        0.000000
  0
LINE
  8
0
 10
      -69.999969
 20
     -125.812256
 30
        0.000000
 11
      -69.999969
 21
     -117.812256
 31
        0.000000
  0
LINE
  8
0
 10
      -69.999969
 20
      -91.812302
 30
        0.000000
 11
      -69.999969
 21
      -86.312256
 31
        0.000000
  0
LINE
  8
0
 10
      -69.999969
 20
      -95.812302
 30
        0.000000
 11
      -69.999969
 21
      -93.812302
 31
        0.000000
  0
LINE
  8
0
 10
      -69.999969
 20
      -99.812256
 30
        0.000000
 11
      -69.999969
 21
      -97.812302
 31
        0.000000
  0
LINE
  8
0
 10
      -69.999969
 20
     -103.812256
 30
        0.000000
 11
      -69.999969
 21
     -101.812256
 31
        0.000000
  0
LINE
  8
0
 10
      -69.999969
 20
     -107.812256
 30
        0.000000
 11
      -69.999969
 21
     -105.812256
 31
        0.000000
  0
LINE
  8
0
 10
      -69.999969
 20
     -111.812256
 30
        0.000000
 11
      -69.999969
 21
     -109.812256
 31
        0.000000
  0
LINE
  8
0
 10
      -69.999969
 20
     -115.812256
 30
        0.000000
 11
      -69.999969
 21
     -113.812256
 31
        0.000000
  0
LINE
  8
0
 10
      -68.999969
 20
      -93.812302
 30
        0.000000
 11
      -68.999969
 21
      -91.812302
 31
        0.000000
  0
LINE
  8
0
 10
      -68.999969
 20
      -97.812302
 30
        0.000000
 11
      -68.999969
 21
      -95.812302
 31
        0.000000
  0
LINE
  8
0
 10
      -68.999969
 20
     -101.812256
 30
        0.000000
 11
      -68.999969
 21
      -99.812256
 31
        0.000000
  0
LINE
  8
0
 10
      -68.999969
 20
     -105.812256
 30
        0.000000
 11
      -68.999969
 21
     -103.812256
 31
        0.000000
  0
LINE
  8
0
 10
      -68.999969
 20
     -109.812256
 30
        0.000000
 11
      -68.999969
 21
     -107.812256
 31
        0.000000
  0
LINE
  8
0
 10
      -68.999969
 20
     -117.812256
 30
        0.000000
 11
      -68.999969
 21
     -115.812256
 31
        0.000000
  0
LINE
  8
0
 10
      -68.999969
 20
     -113.812256
 30
        0.000000
 11
      -68.999969
 21
     -111.812256
 31
        0.000000
  0
LINE
  8
0
 10
      -56.999969
 20
     -117.812256
 30
        0.000000
 11
      -56.999969
 21
     -115.812256
 31
        0.000000
  0
LINE
  8
0
 10
      -54.999969
 20
     -113.812256
 30
        0.000000
 11
      -54.999969
 21
     -111.812256
 31
        0.000000
  0
LINE
  8
0
 10
      -56.999969
 20
     -113.812256
 30
        0.000000
 11
      -56.999969
 21
     -111.812256
 31
        0.000000
  0
LINE
  8
0
 10
      -54.999969
 20
     -109.812256
 30
        0.000000
 11
      -54.999969
 21
     -107.812256
 31
        0.000000
  0
LINE
  8
0
 10
      -56.999969
 20
     -109.812256
 30
        0.000000
 11
      -56.999969
 21
     -107.812256
 31
        0.000000
  0
LINE
  8
0
 10
      -54.999969
 20
     -105.812256
 30
        0.000000
 11
      -54.999969
 21
     -103.812256
 31
        0.000000
  0
LINE
  8
0
 10
      -56.999969
 20
     -105.812256
 30
        0.000000
 11
      -56.999969
 21
     -103.812256
 31
        0.000000
  0
LINE
  8
0
 10
      -54.999969
 20
     -101.812256
 30
        0.000000
 11
      -54.999969
 21
      -99.812256
 31
        0.000000
  0
LINE
  8
0
 10
      -56.999969
 20
     -101.812256
 30
        0.000000
 11
      -56.999969
 21
      -99.812256
 31
        0.000000
  0
LINE
  8
0
 10
      -54.999969
 20
      -97.812256
 30
        0.000000
 11
      -54.999969
 21
      -95.812256
 31
        0.000000
  0
LINE
  8
0
 10
      -56.999969
 20
      -97.812256
 30
        0.000000
 11
      -56.999969
 21
      -95.812256
 31
        0.000000
  0
LINE
  8
0
 10
      -54.999969
 20
      -93.812256
 30
        0.000000
 11
      -54.999969
 21
      -91.812256
 31
        0.000000
  0
LINE
  8
0
 10
      -56.999969
 20
      -93.812256
 30
        0.000000
 11
      -56.999969
 21
      -91.812256
 31
        0.000000
  0
LINE
  8
0
 10
      -66.499969
 20
     -117.812256
 30
        0.000000
 11
      -66.499969
 21
     -115.812256
 31
        0.000000
  0
LINE
  8
0
 10
      -66.499969
 20
     -113.812256
 30
        0.000000
 11
      -66.499969
 21
     -111.812256
 31
        0.000000
  0
LINE
  8
0
 10
      -66.499969
 20
     -109.812256
 30
        0.000000
 11
      -66.499969
 21
     -107.812256
 31
        0.000000
  0
LINE
  8
0
 10
      -66.499969
 20
     -105.812256
 30
        0.000000
 11
      -66.499969
 21
     -103.812256
 31
        0.000000
  0
LINE
  8
0
 10
      -66.499969
 20
     -101.812256
 30
        0.000000
 11
      -66.499969
 21
      -99.812256
 31
        0.000000
  0
LINE
  8
0
 10
      -66.499969
 20
      -97.812256
 30
        0.000000
 11
      -66.499969
 21
      -95.812256
 31
        0.000000
  0
LINE
  8
0
 10
      -66.499969
 20
      -93.812256
 30
        0.000000
 11
      -66.499969
 21
      -91.812256
 31
        0.000000
  0
LINE
  8
0
 10
      -24.749969
 20
      -97.812256
 30
        0.000000
 11
      -24.749969
 21
      -95.812256
 31
        0.000000
  0
LINE
  8
0
 10
      -30.249969
 20
      -97.812256
 30
        0.000000
 11
      -30.249969
 21
      -95.812256
 31
        0.000000
  0
LINE
  8
0
 10
       30.250031
 20
      -97.812256
 30
        0.000000
 11
       30.250031
 21
      -95.812256
 31
        0.000000
  0
LINE
  8
0
 10
       24.750031
 20
      -97.812256
 30
        0.000000
 11
       24.750031
 21
      -95.812256
 31
        0.000000
  0
LINE
  8
0
 10
      -24.749969
 20
      -93.812256
 30
        0.000000
 11
      -24.749969
 21
      -91.812256
 31
        0.000000
  0
LINE
  8
0
 10
      -30.249969
 20
      -93.812256
 30
        0.000000
 11
      -30.249969
 21
      -91.812256
 31
        0.000000
  0
LINE
  8
0
 10
       30.250031
 20
      -93.812256
 30
        0.000000
 11
       30.250031
 21
      -91.812256
 31
        0.000000
  0
LINE
  8
0
 10
       24.750031
 20
      -93.812256
 30
        0.000000
 11
       24.750031
 21
      -91.812256
 31
        0.000000
  0
LINE
  8
0
 10
       57.000031
 20
     -117.812256
 30
        0.000000
 11
       57.000031
 21
     -115.812256
 31
        0.000000
  0
LINE
  8
0
 10
       57.000031
 20
     -113.812256
 30
        0.000000
 11
       57.000031
 21
     -111.812256
 31
        0.000000
  0
LINE
  8
0
 10
       57.000031
 20
     -109.812256
 30
        0.000000
 11
       57.000031
 21
     -107.812256
 31
        0.000000
  0
LINE
  8
0
 10
       57.000031
 20
     -105.812256
 30
        0.000000
 11
       57.000031
 21
     -103.812256
 31
        0.000000
  0
LINE
  8
0
 10
       57.000031
 20
     -101.812256
 30
        0.000000
 11
       57.000031
 21
      -99.812256
 31
        0.000000
  0
LINE
  8
0
 10
       57.000031
 20
      -97.812256
 30
        0.000000
 11
       57.000031
 21
      -95.812256
 31
        0.000000
  0
LINE
  8
0
 10
       57.000031
 20
      -93.812256
 30
        0.000000
 11
       57.000031
 21
      -91.812256
 31
        0.000000
  0
LINE
  8
0
 10
       55.000031
 20
      -97.812256
 30
        0.000000
 11
       55.000031
 21
      -95.812256
 31
        0.000000
  0
LINE
  8
0
 10
       55.000031
 20
      -93.812256
 30
        0.000000
 11
       55.000031
 21
      -91.812256
 31
        0.000000
  0
LINE
  8
0
 10
       66.500031
 20
     -117.812256
 30
        0.000000
 11
       66.500031
 21
     -115.812256
 31
        0.000000
  0
LINE
  8
0
 10
       69.000031
 20
     -117.812256
 30
        0.000000
 11
       69.000031
 21
     -115.812256
 31
        0.000000
  0
LINE
  8
0
 10
       66.500031
 20
     -113.812256
 30
        0.000000
 11
       66.500031
 21
     -111.812256
 31
        0.000000
  0
LINE
  8
0
 10
       69.000031
 20
     -113.812256
 30
        0.000000
 11
       69.000031
 21
     -111.812256
 31
        0.000000
  0
LINE
  8
0
 10
       66.500031
 20
     -109.812256
 30
        0.000000
 11
       66.500031
 21
     -107.812256
 31
        0.000000
  0
LINE
  8
0
 10
       69.000031
 20
     -109.812256
 30
        0.000000
 11
       69.000031
 21
     -107.812256
 31
        0.000000
  0
LINE
  8
0
 10
       66.500031
 20
     -105.812256
 30
        0.000000
 11
       66.500031
 21
     -103.812256
 31
        0.000000
  0
LINE
  8
0
 10
       69.000031
 20
     -105.812256
 30
        0.000000
 11
       69.000031
 21
     -103.812256
 31
        0.000000
  0
LINE
  8
0
 10
       66.500031
 20
     -101.812256
 30
        0.000000
 11
       66.500031
 21
      -99.812256
 31
        0.000000
  0
LINE
  8
0
 10
       69.000031
 20
     -101.812256
 30
        0.000000
 11
       69.000031
 21
      -99.812256
 31
        0.000000
  0
LINE
  8
0
 10
       66.500031
 20
      -97.812256
 30
        0.000000
 11
       66.500031
 21
      -95.812256
 31
        0.000000
  0
LINE
  8
0
 10
       69.000031
 20
      -97.812256
 30
        0.000000
 11
       69.000031
 21
      -95.812256
 31
        0.000000
  0
LINE
  8
0
 10
       66.500031
 20
      -93.812256
 30
        0.000000
 11
       66.500031
 21
      -91.812256
 31
        0.000000
  0
LINE
  8
0
 10
       69.000031
 20
      -93.812256
 30
        0.000000
 11
       69.000031
 21
      -91.812256
 31
        0.000000
  0
LINE
  8
0
 10
       70.000031
 20
      -91.812302
 30
        0.000000
 11
       70.000031
 21
      -86.312134
 31
        0.000000
  0
LINE
  8
0
 10
       70.000031
 20
      -95.812302
 30
        0.000000
 11
       70.000031
 21
      -93.812302
 31
        0.000000
  0
LINE
  8
0
 10
       70.000031
 20
     -125.812256
 30
        0.000000
 11
       70.000031
 21
     -117.812256
 31
        0.000000
  0
LINE
  8
0
 10
       70.000031
 20
      -99.812256
 30
        0.000000
 11
       70.000031
 21
      -97.812256
 31
        0.000000
  0
LINE
  8
0
 10
       70.000031
 20
     -103.812210
 30
        0.000000
 11
       70.000031
 21
     -101.812210
 31
        0.000000
  0
LINE
  8
0
 10
       70.000031
 20
     -107.812164
 30
        0.000000
 11
       70.000031
 21
     -105.812164
 31
        0.000000
  0
LINE
  8
0
 10
       70.000031
 20
     -111.812119
 30
        0.000000
 11
       70.000031
 21
     -109.812119
 31
        0.000000
  0
LINE
  8
0
 10
       70.000031
 20
     -115.812073
 30
        0.000000
 11
       70.000031
 21
     -113.812073
 31
        0.000000
  0
LINE
  8
0
 10
       17.000031
 20
     -117.812256
 30
        0.000000
 11
       17.000031
 21
      -99.812256
 31
        0.000000
  0
LINE
  8
0
 10
      -16.999969
 20
     -117.812256
 30
        0.000000
 11
      -16.999969
 21
      -99.812256
 31
        0.000000
  0
ARC
  8
0
 10
      155.106842
 20
       15.300323
 30
        0.000000
 40
        4.000142
 50
      337.976531
 51
      382.023491
  0
LINE
  8
0
 10
      158.814819
 20
       17.750031
 30
        0.000000
 11
      162.815063
 21
       17.889679
 31
        0.000000
  0
LINE
  8
0
 10
      161.923752
 20
      -17.858368
 30
        0.000000
 11
      158.815109
 21
      -17.749969
 31
        0.000000
  0
LINE
  8
0
 10
      122.814865
 20
      -29.899879
 30
        0.000000
 11
      122.814827
 21
       29.900414
 31
        0.000000
  0
LINE
  8
0
 10
      122.814827
 20
       38.400414
 30
        0.000000
 11
      122.814827
 21
       39.000023
 31
        0.000000
  0
LINE
  8
0
 10
      122.814865
 20
      -38.399879
 30
        0.000000
 11
      122.814865
 21
      -38.999977
 31
        0.000000
  0
LINE
  8
0
 10
      158.815063
 20
       17.750031
 30
        0.000000
 11
      158.815109
 21
      -17.749969
 31
        0.000000
  0
LINE
  8
0
 10
      123.314827
 20
       39.600121
 30
        0.000000
 11
      122.814827
 21
       39.600121
 31
        0.000000
  0
LINE
  8
0
 10
      123.314865
 20
      -39.599586
 30
        0.000000
 11
      122.814865
 21
      -39.599586
 31
        0.000000
  0
LINE
  8
0
 10
      122.814865
 20
      -39.599586
 30
        0.000000
 11
      122.814827
 21
       39.600121
 31
        0.000000
  0
LINE
  8
0
 10
      140.815063
 20
       40.000031
 30
        0.000000
 11
      138.815063
 21
       40.000031
 31
        0.000000
  0
LINE
  8
0
 10
      144.815063
 20
       40.000031
 30
        0.000000
 11
      142.815063
 21
       40.000031
 31
        0.000000
  0
LINE
  8
0
 10
      148.815063
 20
       40.000031
 30
        0.000000
 11
      146.815063
 21
       40.000031
 31
        0.000000
  0
LINE
  8
0
 10
      152.815063
 20
       40.000031
 30
        0.000000
 11
      150.815063
 21
       40.000031
 31
        0.000000
  0
LINE
  8
0
 10
      136.815063
 20
       40.000031
 30
        0.000000
 11
      136.815063
 21
       39.000031
 31
        0.000000
  0
LINE
  8
0
 10
      154.815063
 20
       40.000031
 30
        0.000000
 11
      154.815063
 21
       39.000031
 31
        0.000000
  0
LINE
  8
0
 10
      140.815063
 20
       40.000031
 30
        0.000000
 11
      140.815063
 21
       39.000031
 31
        0.000000
  0
LINE
  8
0
 10
      138.815063
 20
       40.000031
 30
        0.000000
 11
      138.815063
 21
       39.000031
 31
        0.000000
  0
LINE
  8
0
 10
      142.815063
 20
       40.000031
 30
        0.000000
 11
      142.815063
 21
       39.000031
 31
        0.000000
  0
LINE
  8
0
 10
      144.815063
 20
       40.000031
 30
        0.000000
 11
      144.815063
 21
       39.000031
 31
        0.000000
  0
LINE
  8
0
 10
      146.815063
 20
       40.000031
 30
        0.000000
 11
      146.815063
 21
       39.000031
 31
        0.000000
  0
LINE
  8
0
 10
      148.815063
 20
       40.000031
 30
        0.000000
 11
      148.815063
 21
       39.000031
 31
        0.000000
  0
LINE
  8
0
 10
      150.815063
 20
       40.000031
 30
        0.000000
 11
      150.815063
 21
       39.000031
 31
        0.000000
  0
LINE
  8
0
 10
      152.815063
 20
       40.000031
 30
        0.000000
 11
      152.815063
 21
       39.000031
 31
        0.000000
  0
LINE
  8
0
 10
      150.815063
 20
       39.000031
 30
        0.000000
 11
      148.815063
 21
       39.000031
 31
        0.000000
  0
LINE
  8
0
 10
      154.815063
 20
       39.000031
 30
        0.000000
 11
      152.815063
 21
       39.000031
 31
        0.000000
  0
LINE
  8
0
 10
      146.815063
 20
       39.000031
 30
        0.000000
 11
      144.815063
 21
       39.000031
 31
        0.000000
  0
LINE
  8
0
 10
      142.815063
 20
       39.000031
 30
        0.000000
 11
      140.815063
 21
       39.000031
 31
        0.000000
  0
LINE
  8
0
 10
      138.815063
 20
       39.000031
 30
        0.000000
 11
      136.815063
 21
       39.000031
 31
        0.000000
  0
LINE
  8
0
 10
      136.815109
 20
      -39.999977
 30
        0.000000
 11
      136.815109
 21
      -38.999977
 31
        0.000000
  0
LINE
  8
0
 10
      140.815109
 20
      -39.999977
 30
        0.000000
 11
      140.815109
 21
      -38.999977
 31
        0.000000
  0
LINE
  8
0
 10
      138.815109
 20
      -39.999977
 30
        0.000000
 11
      138.815109
 21
      -38.999977
 31
        0.000000
  0
LINE
  8
0
 10
      142.815109
 20
      -39.999977
 30
        0.000000
 11
      142.815109
 21
      -38.999977
 31
        0.000000
  0
LINE
  8
0
 10
      144.815109
 20
      -39.999977
 30
        0.000000
 11
      144.815109
 21
      -38.999977
 31
        0.000000
  0
LINE
  8
0
 10
      146.815109
 20
      -39.999977
 30
        0.000000
 11
      146.815109
 21
      -38.999977
 31
        0.000000
  0
LINE
  8
0
 10
      148.815109
 20
      -39.999977
 30
        0.000000
 11
      148.815109
 21
      -38.999977
 31
        0.000000
  0
LINE
  8
0
 10
      150.815109
 20
      -39.999977
 30
        0.000000
 11
      150.815109
 21
      -38.999977
 31
        0.000000
  0
LINE
  8
0
 10
      152.815109
 20
      -39.999977
 30
        0.000000
 11
      152.815109
 21
      -38.999977
 31
        0.000000
  0
LINE
  8
0
 10
      154.815109
 20
      -39.999977
 30
        0.000000
 11
      154.815109
 21
      -38.999977
 31
        0.000000
  0
LINE
  8
0
 10
      140.815109
 20
      -39.999977
 30
        0.000000
 11
      138.815109
 21
      -39.999977
 31
        0.000000
  0
LINE
  8
0
 10
      144.815109
 20
      -39.999977
 30
        0.000000
 11
      142.815109
 21
      -39.999977
 31
        0.000000
  0
LINE
  8
0
 10
      152.815109
 20
      -39.999977
 30
        0.000000
 11
      150.815109
 21
      -39.999977
 31
        0.000000
  0
LINE
  8
0
 10
      150.815109
 20
      -38.999977
 30
        0.000000
 11
      148.815109
 21
      -38.999977
 31
        0.000000
  0
LINE
  8
0
 10
      154.815109
 20
      -38.999977
 30
        0.000000
 11
      152.815109
 21
      -38.999977
 31
        0.000000
  0
LINE
  8
0
 10
      146.815109
 20
      -38.999977
 30
        0.000000
 11
      144.815109
 21
      -38.999977
 31
        0.000000
  0
LINE
  8
0
 10
      142.815109
 20
      -38.999977
 30
        0.000000
 11
      140.815109
 21
      -38.999977
 31
        0.000000
  0
LINE
  8
0
 10
      138.815109
 20
      -38.999977
 30
        0.000000
 11
      136.815109
 21
      -38.999977
 31
        0.000000
  0
LINE
  8
0
 10
      122.815071
 20
       39.000023
 30
        0.000000
 11
      123.815071
 21
       40.000023
 31
        0.000000
  0
LINE
  8
0
 10
      122.815071
 20
       38.399925
 30
        0.000000
 11
      122.815071
 21
       39.000023
 31
        0.000000
  0
LINE
  8
0
 10
      122.815109
 20
      -38.399879
 30
        0.000000
 11
      122.815109
 21
      -38.999977
 31
        0.000000
  0
LINE
  8
0
 10
      140.815063
 20
       40.000031
 30
        0.000000
 11
      138.815063
 21
       40.000031
 31
        0.000000
  0
LINE
  8
0
 10
      144.815063
 20
       40.000031
 30
        0.000000
 11
      142.815063
 21
       40.000031
 31
        0.000000
  0
LINE
  8
0
 10
      148.815063
 20
       40.000031
 30
        0.000000
 11
      146.815063
 21
       40.000031
 31
        0.000000
  0
LINE
  8
0
 10
      162.815063
 20
       40.000031
 30
        0.000000
 11
      154.815063
 21
       40.000031
 31
        0.000000
  0
LINE
  8
0
 10
      152.815063
 20
       40.000031
 30
        0.000000
 11
      150.815063
 21
       40.000031
 31
        0.000000
  0
LINE
  8
0
 10
      148.815109
 20
      -39.999977
 30
        0.000000
 11
      146.815109
 21
      -39.999977
 31
        0.000000
  0
LINE
  8
0
 10
      162.815109
 20
      -39.999977
 30
        0.000000
 11
      154.815109
 21
      -39.999977
 31
        0.000000
  0
LINE
  8
0
 10
      122.814865
 20
      -39.999977
 30
        0.000000
 11
      114.526413
 21
      -39.565407
 31
        0.000000
  0
LINE
  8
0
 10
      122.814827
 20
       40.000023
 30
        0.000000
 11
      114.526375
 21
       39.565453
 31
        0.000000
  0
LINE
  8
0
 10
      122.814865
 20
      -39.999733
 30
        0.000000
 11
      122.814827
 21
       40.000023
 31
        0.000000
  0
LINE
  8
0
 10
      122.814621
 20
      -29.899391
 30
        0.000000
 11
      122.814583
 21
       29.900414
 31
        0.000000
  0
LINE
  8
0
 10
      114.514816
 20
      -39.564674
 30
        0.000000
 11
      122.814865
 21
      -39.999733
 31
        0.000000
  0
LINE
  8
0
 10
      114.414803
 20
       39.559837
 30
        0.000000
 11
      122.814827
 21
       40.000023
 31
        0.000000
  0
ARC
  8
0
 10
      251.614777
 20
        0.000015
 30
        0.000000
 40
      150.000122
 50
      180.000124
 51
      187.662367
  0
ARC
  8
0
 10
      251.614777
 20
        0.000015
 30
        0.000000
 40
      150.000107
 50
      172.337739
 51
      180.000124
  0
LINE
  8
0
 10
      103.728439
 20
      -29.465797
 30
        0.000000
 11
      113.040939
 21
      -29.628395
 31
        0.000000
  0
ARC
  8
0
 10
      113.014816
 20
      -31.128151
 30
        0.000000
 40
        1.500000
 50
        0.000000
 51
       88.997456
  0
LINE
  8
0
 10
      112.943001
 20
       29.628685
 30
        0.000000
 11
      103.728523
 21
       29.467796
 31
        0.000000
  0
ARC
  8
0
 10
      112.914803
 20
       31.128441
 30
        0.000000
 40
        1.499985
 50
      271.002568
 51
      360.000000
  0
ARC
  8
0
 10
       13.757576
 20
       32.000267
 30
        0.000000
 40
       90.000000
 50
      352.337795
 51
      358.387594
  0
ARC
  8
0
 10
       13.757610
 20
      -31.999977
 30
        0.000000
 40
       90.000031
 50
        1.613561
 51
        7.662272
  0
LINE
  8
0
 10
      114.414803
 20
       31.128441
 30
        0.000000
 11
      114.414803
 21
       39.476097
 31
        0.000000
  0
LINE
  8
0
 10
      114.514816
 20
      -39.564674
 30
        0.000000
 11
      114.514816
 21
      -31.128151
 31
        0.000000
  0
LINE
  8
0
 10
      114.414841
 20
      -37.300026
 30
        0.000000
 11
      106.289841
 21
      -37.300026
 31
        0.000000
  0
ARC
  8
0
 10
      106.289841
 20
      -36.925026
 30
        0.000000
 40
        0.375000
 50
      180.000015
 51
      270.000000
  0
LINE
  8
0
 10
      114.414841
 20
      -36.550026
 30
        0.000000
 11
      106.289841
 21
      -36.550026
 31
        0.000000
  0
ARC
  8
0
 10
      106.289841
 20
      -36.925026
 30
        0.000000
 40
        0.375000
 50
       90.000000
 51
      180.000015
  0
LINE
  8
0
 10
      114.414841
 20
      -39.564674
 30
        0.000000
 11
      114.414841
 21
      -37.300026
 31
        0.000000
  0
LINE
  8
0
 10
      106.103439
 20
      -39.123756
 30
        0.000000
 11
      114.414841
 21
      -39.559547
 31
        0.000000
  0
ARC
  8
0
 10
      106.234421
 20
      -36.627174
 30
        0.000000
 40
        2.500000
 50
      180.000015
 51
      266.999559
  0
LINE
  8
0
 10
      114.414841
 20
      -36.550026
 30
        0.000000
 11
      114.414841
 21
      -31.174294
 31
        0.000000
  0
LINE
  8
0
 10
      103.734421
 20
      -29.612038
 30
        0.000000
 11
      113.041306
 21
      -29.774391
 31
        0.000000
  0
ARC
  8
0
 10
      113.014816
 20
      -31.174294
 30
        0.000000
 40
        1.400024
 50
        0.000000
 51
       89.000803
  0
LINE
  8
0
 10
      103.734421
 20
      -36.627174
 30
        0.000000
 11
      103.734421
 21
      -29.612038
 31
        0.000000
  0
LINE
  8
0
 10
      103.734383
 20
       36.627464
 30
        0.000000
 11
      103.734383
 21
       29.612328
 31
        0.000000
  0
ARC
  8
0
 10
      113.014778
 20
       31.174583
 30
        0.000000
 40
        1.400115
 50
      270.999125
 51
      360.000000
  0
LINE
  8
0
 10
      103.734383
 20
       29.612328
 30
        0.000000
 11
      113.041267
 21
       29.774681
 31
        0.000000
  0
LINE
  8
0
 10
      114.414803
 20
       36.550316
 30
        0.000000
 11
      114.414803
 21
       31.174583
 31
        0.000000
  0
ARC
  8
0
 10
      106.234383
 20
       36.627464
 30
        0.000000
 40
        2.500009
 50
       93.000431
 51
      180.000015
  0
LINE
  8
0
 10
      106.103401
 20
       39.124046
 30
        0.000000
 11
      114.414803
 21
       39.559837
 31
        0.000000
  0
LINE
  8
0
 10
      114.414803
 20
       39.564964
 30
        0.000000
 11
      114.414803
 21
       37.300316
 31
        0.000000
  0
ARC
  8
0
 10
      106.289803
 20
       36.925316
 30
        0.000000
 40
        0.375000
 50
      180.000015
 51
      270.000000
  0
LINE
  8
0
 10
      114.414803
 20
       36.550316
 30
        0.000000
 11
      106.289803
 21
       36.550316
 31
        0.000000
  0
ARC
  8
0
 10
      106.289803
 20
       36.925316
 30
        0.000000
 40
        0.375000
 50
       90.000000
 51
      180.000015
  0
LINE
  8
0
 10
      114.414803
 20
       37.300316
 30
        0.000000
 11
      106.289803
 21
       37.300316
 31
        0.000000
  0
LINE
  8
0
 10
      113.114601
 20
       -1.499611
 30
        0.000000
 11
      113.114601
 21
       21.400383
 31
        0.000000
  0
LINE
  8
0
 10
      113.114601
 20
       21.400383
 30
        0.000000
 11
      103.151649
 21
       21.574287
 31
        0.000000
  0
LINE
  8
0
 10
      113.114601
 20
       -1.499611
 30
        0.000000
 11
      101.624275
 21
       -1.700172
 31
        0.000000
  0
LINE
  8
0
 10
      136.815109
 20
      -39.999977
 30
        0.000000
 11
      136.815094
 21
       40.000031
 31
        0.000000
  0
LINE
  8
0
 10
      138.815109
 20
      -39.999977
 30
        0.000000
 11
      138.815094
 21
       40.000031
 31
        0.000000
  0
LINE
  8
0
 10
      140.815109
 20
      -39.999977
 30
        0.000000
 11
      140.815094
 21
       40.000031
 31
        0.000000
  0
LINE
  8
0
 10
      142.815109
 20
      -39.999977
 30
        0.000000
 11
      142.815094
 21
       40.000031
 31
        0.000000
  0
LINE
  8
0
 10
      144.815109
 20
      -39.999977
 30
        0.000000
 11
      144.815094
 21
       40.000031
 31
        0.000000
  0
LINE
  8
0
 10
      146.815109
 20
      -39.999977
 30
        0.000000
 11
      146.815094
 21
       40.000031
 31
        0.000000
  0
LINE
  8
0
 10
      148.815109
 20
      -39.999977
 30
        0.000000
 11
      148.815094
 21
       40.000031
 31
        0.000000
  0
LINE
  8
0
 10
      150.815109
 20
      -39.999977
 30
        0.000000
 11
      150.815094
 21
       40.000031
 31
        0.000000
  0
LINE
  8
0
 10
      152.815109
 20
      -39.999977
 30
        0.000000
 11
      152.815094
 21
       40.000031
 31
        0.000000
  0
LINE
  8
0
 10
      154.815109
 20
      -39.999977
 30
        0.000000
 11
      154.815094
 21
       40.000031
 31
        0.000000
  0
LINE
  8
0
 10
      123.314865
 20
      -39.999977
 30
        0.000000
 11
      123.314827
 21
       40.000023
 31
        0.000000
  0
LINE
  8
0
 10
      158.815109
 20
      -43.499611
 30
        0.000000
 11
      158.815109
 21
      -39.999977
 31
        0.000000
  0
LINE
  8
0
 10
      158.815109
 20
      -43.499611
 30
        0.000000
 11
      162.815109
 21
      -43.499611
 31
        0.000000
  0
LINE
  8
0
 10
      134.815109
 20
      -39.999977
 30
        0.000000
 11
      134.815094
 21
       40.000031
 31
        0.000000
  0
LINE
  8
0
 10
      132.815109
 20
      -39.999977
 30
        0.000000
 11
      132.815094
 21
       40.000031
 31
        0.000000
  0
LINE
  8
0
 10
      130.815109
 20
      -39.999977
 30
        0.000000
 11
      130.815094
 21
       40.000031
 31
        0.000000
  0
LINE
  8
0
 10
      128.815109
 20
      -39.999977
 30
        0.000000
 11
      128.815094
 21
       40.000031
 31
        0.000000
  0
LINE
  8
0
 10
      134.815094
 20
       39.000031
 30
        0.000000
 11
      132.815094
 21
       39.000031
 31
        0.000000
  0
LINE
  8
0
 10
      130.815094
 20
       39.000031
 30
        0.000000
 11
      128.815094
 21
       39.000031
 31
        0.000000
  0
LINE
  8
0
 10
      136.815063
 20
       40.000031
 30
        0.000000
 11
      134.815094
 21
       40.000031
 31
        0.000000
  0
LINE
  8
0
 10
      132.815094
 20
       40.000031
 30
        0.000000
 11
      130.815094
 21
       40.000031
 31
        0.000000
  0
LINE
  8
0
 10
      128.815094
 20
       40.000031
 30
        0.000000
 11
      122.814827
 21
       40.000023
 31
        0.000000
  0
LINE
  8
0
 10
      136.815109
 20
      -39.999977
 30
        0.000000
 11
      134.815109
 21
      -39.999977
 31
        0.000000
  0
LINE
  8
0
 10
      132.815109
 20
      -39.999977
 30
        0.000000
 11
      130.815109
 21
      -39.999977
 31
        0.000000
  0
LINE
  8
0
 10
      128.815109
 20
      -39.999977
 30
        0.000000
 11
      122.814865
 21
      -39.999977
 31
        0.000000
  0
LINE
  8
0
 10
      134.815109
 20
      -38.999977
 30
        0.000000
 11
      132.815109
 21
      -38.999977
 31
        0.000000
  0
LINE
  8
0
 10
      130.815109
 20
      -38.999977
 30
        0.000000
 11
      128.815109
 21
      -38.999977
 31
        0.000000
  0
LINE
  8
0
 10
      112.114601
 20
       -1.517067
 30
        0.000000
 11
      112.114601
 21
       21.417839
 31
        0.000000
  0
LINE
  8
0
 10
      154.815094
 20
       27.500031
 30
        0.000000
 11
      152.815094
 21
       27.500031
 31
        0.000000
  0
LINE
  8
0
 10
      154.815094
 20
        8.000031
 30
        0.000000
 11
      152.815094
 21
        8.000031
 31
        0.000000
  0
LINE
  8
0
 10
      154.815094
 20
        6.500031
 30
        0.000000
 11
      152.815094
 21
        6.500031
 31
        0.000000
  0
LINE
  8
0
 10
      154.815094
 20
        2.500031
 30
        0.000000
 11
      152.815094
 21
        2.500031
 31
        0.000000
  0
LINE
  8
0
 10
      154.815094
 20
       -2.499969
 30
        0.000000
 11
      152.815094
 21
       -2.499969
 31
        0.000000
  0
LINE
  8
0
 10
      154.815094
 20
       -6.499969
 30
        0.000000
 11
      152.815094
 21
       -6.499969
 31
        0.000000
  0
LINE
  8
0
 10
      154.815094
 20
       -7.999969
 30
        0.000000
 11
      152.815094
 21
       -7.999969
 31
        0.000000
  0
LINE
  8
0
 10
      154.815109
 20
      -27.499977
 30
        0.000000
 11
      152.815109
 21
      -27.499977
 31
        0.000000
  0
LINE
  8
0
 10
      150.815094
 20
       27.500031
 30
        0.000000
 11
      148.815094
 21
       27.500031
 31
        0.000000
  0
LINE
  8
0
 10
      150.815094
 20
        8.000031
 30
        0.000000
 11
      148.815094
 21
        8.000031
 31
        0.000000
  0
LINE
  8
0
 10
      150.815094
 20
        6.500031
 30
        0.000000
 11
      148.815094
 21
        6.500031
 31
        0.000000
  0
LINE
  8
0
 10
      150.815094
 20
        2.500031
 30
        0.000000
 11
      148.815094
 21
        2.500031
 31
        0.000000
  0
LINE
  8
0
 10
      150.815094
 20
       -2.499969
 30
        0.000000
 11
      148.815094
 21
       -2.499969
 31
        0.000000
  0
LINE
  8
0
 10
      150.815094
 20
       -6.499969
 30
        0.000000
 11
      148.815094
 21
       -6.499969
 31
        0.000000
  0
LINE
  8
0
 10
      150.815094
 20
       -7.999969
 30
        0.000000
 11
      148.815094
 21
       -7.999969
 31
        0.000000
  0
LINE
  8
0
 10
      150.815109
 20
      -27.499977
 30
        0.000000
 11
      148.815109
 21
      -27.499977
 31
        0.000000
  0
LINE
  8
0
 10
      146.815094
 20
       27.500031
 30
        0.000000
 11
      144.815094
 21
       27.500031
 31
        0.000000
  0
LINE
  8
0
 10
      146.815094
 20
        8.000031
 30
        0.000000
 11
      144.815094
 21
        8.000031
 31
        0.000000
  0
LINE
  8
0
 10
      146.815094
 20
        6.500031
 30
        0.000000
 11
      144.815094
 21
        6.500031
 31
        0.000000
  0
LINE
  8
0
 10
      146.815094
 20
        2.500031
 30
        0.000000
 11
      144.815094
 21
        2.500031
 31
        0.000000
  0
LINE
  8
0
 10
      146.815094
 20
       -2.499969
 30
        0.000000
 11
      144.815094
 21
       -2.499969
 31
        0.000000
  0
LINE
  8
0
 10
      146.815094
 20
       -6.499969
 30
        0.000000
 11
      144.815094
 21
       -6.499969
 31
        0.000000
  0
LINE
  8
0
 10
      146.815094
 20
       -7.999969
 30
        0.000000
 11
      144.815094
 21
       -7.999969
 31
        0.000000
  0
LINE
  8
0
 10
      146.815109
 20
      -27.499977
 30
        0.000000
 11
      144.815109
 21
      -27.499977
 31
        0.000000
  0
LINE
  8
0
 10
      142.815094
 20
       27.500031
 30
        0.000000
 11
      140.815094
 21
       27.500031
 31
        0.000000
  0
LINE
  8
0
 10
      142.815094
 20
        8.000031
 30
        0.000000
 11
      140.815094
 21
        8.000031
 31
        0.000000
  0
LINE
  8
0
 10
      142.815094
 20
        6.500031
 30
        0.000000
 11
      140.815094
 21
        6.500031
 31
        0.000000
  0
LINE
  8
0
 10
      142.815094
 20
        2.500031
 30
        0.000000
 11
      140.815094
 21
        2.500031
 31
        0.000000
  0
LINE
  8
0
 10
      142.815094
 20
       -2.499969
 30
        0.000000
 11
      140.815094
 21
       -2.499969
 31
        0.000000
  0
LINE
  8
0
 10
      142.815094
 20
       -6.499969
 30
        0.000000
 11
      140.815094
 21
       -6.499969
 31
        0.000000
  0
LINE
  8
0
 10
      142.815094
 20
       -7.999969
 30
        0.000000
 11
      140.815094
 21
       -7.999969
 31
        0.000000
  0
LINE
  8
0
 10
      142.815109
 20
      -27.499977
 30
        0.000000
 11
      140.815109
 21
      -27.499977
 31
        0.000000
  0
LINE
  8
0
 10
      138.815094
 20
       27.500031
 30
        0.000000
 11
      136.815094
 21
       27.500031
 31
        0.000000
  0
LINE
  8
0
 10
      138.815094
 20
        8.000031
 30
        0.000000
 11
      136.815094
 21
        8.000031
 31
        0.000000
  0
LINE
  8
0
 10
      138.815094
 20
        6.500031
 30
        0.000000
 11
      136.815094
 21
        6.500031
 31
        0.000000
  0
LINE
  8
0
 10
      138.815094
 20
        2.500031
 30
        0.000000
 11
      136.815094
 21
        2.500031
 31
        0.000000
  0
LINE
  8
0
 10
      138.815094
 20
       -2.499969
 30
        0.000000
 11
      136.815094
 21
       -2.499969
 31
        0.000000
  0
LINE
  8
0
 10
      138.815094
 20
       -6.499969
 30
        0.000000
 11
      136.815094
 21
       -6.499969
 31
        0.000000
  0
LINE
  8
0
 10
      138.815094
 20
       -7.999969
 30
        0.000000
 11
      136.815094
 21
       -7.999969
 31
        0.000000
  0
LINE
  8
0
 10
      138.815109
 20
      -27.499977
 30
        0.000000
 11
      136.815109
 21
      -27.499977
 31
        0.000000
  0
LINE
  8
0
 10
      134.815094
 20
       27.500031
 30
        0.000000
 11
      132.815094
 21
       27.500031
 31
        0.000000
  0
LINE
  8
0
 10
      134.815094
 20
        8.000031
 30
        0.000000
 11
      132.815094
 21
        8.000031
 31
        0.000000
  0
LINE
  8
0
 10
      134.815094
 20
        6.500031
 30
        0.000000
 11
      132.815094
 21
        6.500031
 31
        0.000000
  0
LINE
  8
0
 10
      134.815094
 20
        2.500031
 30
        0.000000
 11
      132.815094
 21
        2.500031
 31
        0.000000
  0
LINE
  8
0
 10
      134.815094
 20
       -2.499969
 30
        0.000000
 11
      132.815094
 21
       -2.499969
 31
        0.000000
  0
LINE
  8
0
 10
      134.815094
 20
       -6.499969
 30
        0.000000
 11
      132.815094
 21
       -6.499969
 31
        0.000000
  0
LINE
  8
0
 10
      134.815094
 20
       -7.999969
 30
        0.000000
 11
      132.815094
 21
       -7.999969
 31
        0.000000
  0
LINE
  8
0
 10
      134.815109
 20
      -27.499977
 30
        0.000000
 11
      132.815109
 21
      -27.499977
 31
        0.000000
  0
LINE
  8
0
 10
      130.815094
 20
       24.500031
 30
        0.000000
 11
      128.815094
 21
       24.500031
 31
        0.000000
  0
LINE
  8
0
 10
      130.815109
 20
      -24.499977
 30
        0.000000
 11
      128.815109
 21
      -24.499977
 31
        0.000000
  0
LINE
  8
0
 10
      130.815094
 20
       14.500031
 30
        0.000000
 11
      128.815094
 21
       14.500031
 31
        0.000000
  0
LINE
  8
0
 10
      130.815109
 20
      -14.499969
 30
        0.000000
 11
      128.815109
 21
      -14.499969
 31
        0.000000
  0
LINE
  8
0
 10
      129.815109
 20
      -24.499977
 30
        0.000000
 11
      129.815109
 21
      -14.499969
 31
        0.000000
  0
LINE
  8
0
 10
      129.815094
 20
       14.500031
 30
        0.000000
 11
      129.815094
 21
       24.500031
 31
        0.000000
  0
LINE
  8
0
 10
       61.999969
 20
      -31.300024
 30
        0.000000
 11
       61.999969
 21
      -36.500023
 31
        0.000000
  0
LINE
  8
0
 10
       59.399971
 20
      -33.900024
 30
        0.000000
 11
       64.599968
 21
      -33.900024
 31
        0.000000
  0
LINE
  8
0
 10
      -61.999969
 20
       36.499901
 30
        0.000000
 11
      -61.999969
 21
       31.299902
 31
        0.000000
  0
LINE
  8
0
 10
      -64.599968
 20
       33.899902
 30
        0.000000
 11
      -59.399971
 21
       33.899902
 31
        0.000000
  0
LINE
  8
0
 10
       -9.450027
 20
        5.500000
 30
        0.000000
 11
       -8.850021
 21
        5.500000
 31
        0.000000
  0
LINE
  8
0
 10
       -8.850021
 20
        5.500000
 30
        0.000000
 11
       -8.850021
 21
        4.900002
 31
        0.000000
  0
LINE
  8
0
 10
       -8.850021
 20
        4.900002
 30
        0.000000
 11
       -8.650040
 21
        4.900002
 31
        0.000000
  0
LINE
  8
0
 10
       -8.650040
 20
        4.900002
 30
        0.000000
 11
       -8.650040
 21
        5.500000
 31
        0.000000
  0
LINE
  8
0
 10
       -8.650040
 20
        5.500000
 30
        0.000000
 11
       -8.050034
 21
        5.500000
 31
        0.000000
  0
LINE
  8
0
 10
       -8.050034
 20
        5.500000
 30
        0.000000
 11
       -8.050034
 21
        5.699997
 31
        0.000000
  0
LINE
  8
0
 10
       -8.050034
 20
        5.699997
 30
        0.000000
 11
       -8.650040
 21
        5.699997
 31
        0.000000
  0
LINE
  8
0
 10
       -8.650040
 20
        5.699997
 30
        0.000000
 11
       -8.650040
 21
        6.300003
 31
        0.000000
  0
LINE
  8
0
 10
       -8.650040
 20
        6.300003
 30
        0.000000
 11
       -8.850021
 21
        6.300003
 31
        0.000000
  0
LINE
  8
0
 10
       -8.850021
 20
        6.300003
 30
        0.000000
 11
       -8.850021
 21
        5.699997
 31
        0.000000
  0
LINE
  8
0
 10
       -8.850021
 20
        5.699997
 30
        0.000000
 11
       -9.450027
 21
        5.699997
 31
        0.000000
  0
LINE
  8
0
 10
       -9.450027
 20
        5.699997
 30
        0.000000
 11
       -9.450027
 21
        5.500000
 31
        0.000000
  0
LINE
  8
0
 10
       -9.450027
 20
       -2.099998
 30
        0.000000
 11
       -8.850021
 21
       -2.099998
 31
        0.000000
  0
LINE
  8
0
 10
       -8.850021
 20
       -2.099998
 30
        0.000000
 11
       -8.850021
 21
       -2.699997
 31
        0.000000
  0
LINE
  8
0
 10
       -8.850021
 20
       -2.699997
 30
        0.000000
 11
       -8.650040
 21
       -2.699997
 31
        0.000000
  0
LINE
  8
0
 10
       -8.650040
 20
       -2.699997
 30
        0.000000
 11
       -8.650040
 21
       -2.099998
 31
        0.000000
  0
LINE
  8
0
 10
       -8.650040
 20
       -2.099998
 30
        0.000000
 11
       -8.050034
 21
       -2.099998
 31
        0.000000
  0
LINE
  8
0
 10
       -8.050034
 20
       -2.099998
 30
        0.000000
 11
       -8.050034
 21
       -1.900002
 31
        0.000000
  0
LINE
  8
0
 10
       -8.050034
 20
       -1.900002
 30
        0.000000
 11
       -8.650040
 21
       -1.900002
 31
        0.000000
  0
LINE
  8
0
 10
       -8.650040
 20
       -1.900002
 30
        0.000000
 11
       -8.650040
 21
       -1.300003
 31
        0.000000
  0
LINE
  8
0
 10
       -8.650040
 20
       -1.300003
 30
        0.000000
 11
       -8.850021
 21
       -1.300003
 31
        0.000000
  0
LINE
  8
0
 10
       -8.850021
 20
       -1.300003
 30
        0.000000
 11
       -8.850021
 21
       -1.900002
 31
        0.000000
  0
LINE
  8
0
 10
       -8.850021
 20
       -1.900002
 30
        0.000000
 11
       -9.450027
 21
       -1.900002
 31
        0.000000
  0
LINE
  8
0
 10
       -9.450027
 20
       -1.900002
 30
        0.000000
 11
       -9.450027
 21
       -2.099998
 31
        0.000000
  0
LINE
  8
0
 10
       -3.450027
 20
        5.500000
 30
        0.000000
 11
       -2.850021
 21
        5.500000
 31
        0.000000
  0
LINE
  8
0
 10
       -2.850021
 20
        5.500000
 30
        0.000000
 11
       -2.850021
 21
        4.900002
 31
        0.000000
  0
LINE
  8
0
 10
       -2.850021
 20
        4.900002
 30
        0.000000
 11
       -2.650040
 21
        4.900002
 31
        0.000000
  0
LINE
  8
0
 10
       -2.650040
 20
        4.900002
 30
        0.000000
 11
       -2.650040
 21
        5.500000
 31
        0.000000
  0
LINE
  8
0
 10
       -2.650040
 20
        5.500000
 30
        0.000000
 11
       -2.050034
 21
        5.500000
 31
        0.000000
  0
LINE
  8
0
 10
       -2.050034
 20
        5.500000
 30
        0.000000
 11
       -2.050034
 21
        5.699997
 31
        0.000000
  0
LINE
  8
0
 10
       -2.050034
 20
        5.699997
 30
        0.000000
 11
       -2.650040
 21
        5.699997
 31
        0.000000
  0
LINE
  8
0
 10
       -2.650040
 20
        5.699997
 30
        0.000000
 11
       -2.650040
 21
        6.300003
 31
        0.000000
  0
LINE
  8
0
 10
       -2.650040
 20
        6.300003
 30
        0.000000
 11
       -2.850021
 21
        6.300003
 31
        0.000000
  0
LINE
  8
0
 10
       -2.850021
 20
        6.300003
 30
        0.000000
 11
       -2.850021
 21
        5.699997
 31
        0.000000
  0
LINE
  8
0
 10
       -2.850021
 20
        5.699997
 30
        0.000000
 11
       -3.450027
 21
        5.699997
 31
        0.000000
  0
LINE
  8
0
 10
       -3.450027
 20
        5.699997
 30
        0.000000
 11
       -3.450027
 21
        5.500000
 31
        0.000000
  0
LINE
  8
0
 10
        2.549973
 20
        5.500000
 30
        0.000000
 11
        3.149979
 21
        5.500000
 31
        0.000000
  0
LINE
  8
0
 10
        3.149979
 20
        5.500000
 30
        0.000000
 11
        3.149979
 21
        4.900002
 31
        0.000000
  0
LINE
  8
0
 10
        3.149979
 20
        4.900002
 30
        0.000000
 11
        3.349960
 21
        4.900002
 31
        0.000000
  0
LINE
  8
0
 10
        3.349960
 20
        4.900002
 30
        0.000000
 11
        3.349960
 21
        5.500000
 31
        0.000000
  0
LINE
  8
0
 10
        3.349960
 20
        5.500000
 30
        0.000000
 11
        3.949966
 21
        5.500000
 31
        0.000000
  0
LINE
  8
0
 10
        3.949966
 20
        5.500000
 30
        0.000000
 11
        3.949966
 21
        5.699997
 31
        0.000000
  0
LINE
  8
0
 10
        3.949966
 20
        5.699997
 30
        0.000000
 11
        3.349960
 21
        5.699997
 31
        0.000000
  0
LINE
  8
0
 10
        3.349960
 20
        5.699997
 30
        0.000000
 11
        3.349960
 21
        6.300003
 31
        0.000000
  0
LINE
  8
0
 10
        3.349960
 20
        6.300003
 30
        0.000000
 11
        3.149979
 21
        6.300003
 31
        0.000000
  0
LINE
  8
0
 10
        3.149979
 20
        6.300003
 30
        0.000000
 11
        3.149979
 21
        5.699997
 31
        0.000000
  0
LINE
  8
0
 10
        3.149979
 20
        5.699997
 30
        0.000000
 11
        2.549973
 21
        5.699997
 31
        0.000000
  0
LINE
  8
0
 10
        2.549973
 20
        5.699997
 30
        0.000000
 11
        2.549973
 21
        5.500000
 31
        0.000000
  0
LINE
  8
0
 10
        8.549973
 20
        5.500000
 30
        0.000000
 11
        9.149979
 21
        5.500000
 31
        0.000000
  0
LINE
  8
0
 10
        9.149979
 20
        5.500000
 30
        0.000000
 11
        9.149979
 21
        4.900002
 31
        0.000000
  0
LINE
  8
0
 10
        9.149979
 20
        4.900002
 30
        0.000000
 11
        9.349960
 21
        4.900002
 31
        0.000000
  0
LINE
  8
0
 10
        9.349960
 20
        4.900002
 30
        0.000000
 11
        9.349960
 21
        5.500000
 31
        0.000000
  0
LINE
  8
0
 10
        9.349960
 20
        5.500000
 30
        0.000000
 11
        9.949966
 21
        5.500000
 31
        0.000000
  0
LINE
  8
0
 10
        9.949966
 20
        5.500000
 30
        0.000000
 11
        9.949966
 21
        5.699997
 31
        0.000000
  0
LINE
  8
0
 10
        9.949966
 20
        5.699997
 30
        0.000000
 11
        9.349960
 21
        5.699997
 31
        0.000000
  0
LINE
  8
0
 10
        9.349960
 20
        5.699997
 30
        0.000000
 11
        9.349960
 21
        6.300003
 31
        0.000000
  0
LINE
  8
0
 10
        9.349960
 20
        6.300003
 30
        0.000000
 11
        9.149979
 21
        6.300003
 31
        0.000000
  0
LINE
  8
0
 10
        9.149979
 20
        6.300003
 30
        0.000000
 11
        9.149979
 21
        5.699997
 31
        0.000000
  0
LINE
  8
0
 10
        9.149979
 20
        5.699997
 30
        0.000000
 11
        8.549973
 21
        5.699997
 31
        0.000000
  0
LINE
  8
0
 10
        8.549973
 20
        5.699997
 30
        0.000000
 11
        8.549973
 21
        5.500000
 31
        0.000000
  0
LINE
  8
0
 10
       14.549973
 20
        5.500000
 30
        0.000000
 11
       15.149979
 21
        5.500000
 31
        0.000000
  0
LINE
  8
0
 10
       15.149979
 20
        5.500000
 30
        0.000000
 11
       15.149979
 21
        4.900002
 31
        0.000000
  0
LINE
  8
0
 10
       15.149979
 20
        4.900002
 30
        0.000000
 11
       15.349960
 21
        4.900002
 31
        0.000000
  0
LINE
  8
0
 10
       15.349960
 20
        4.900002
 30
        0.000000
 11
       15.349960
 21
        5.500000
 31
        0.000000
  0
LINE
  8
0
 10
       15.349960
 20
        5.500000
 30
        0.000000
 11
       15.949966
 21
        5.500000
 31
        0.000000
  0
LINE
  8
0
 10
       15.949966
 20
        5.500000
 30
        0.000000
 11
       15.949966
 21
        5.699997
 31
        0.000000
  0
LINE
  8
0
 10
       15.949966
 20
        5.699997
 30
        0.000000
 11
       15.349960
 21
        5.699997
 31
        0.000000
  0
LINE
  8
0
 10
       15.349960
 20
        5.699997
 30
        0.000000
 11
       15.349960
 21
        6.300003
 31
        0.000000
  0
LINE
  8
0
 10
       15.349960
 20
        6.300003
 30
        0.000000
 11
       15.149979
 21
        6.300003
 31
        0.000000
  0
LINE
  8
0
 10
       15.149979
 20
        6.300003
 30
        0.000000
 11
       15.149979
 21
        5.699997
 31
        0.000000
  0
LINE
  8
0
 10
       15.149979
 20
        5.699997
 30
        0.000000
 11
       14.549973
 21
        5.699997
 31
        0.000000
  0
LINE
  8
0
 10
       14.549973
 20
        5.699997
 30
        0.000000
 11
       14.549973
 21
        5.500000
 31
        0.000000
  0
LINE
  8
0
 10
       20.549973
 20
        5.500000
 30
        0.000000
 11
       21.149979
 21
        5.500000
 31
        0.000000
  0
LINE
  8
0
 10
       21.149979
 20
        5.500000
 30
        0.000000
 11
       21.149979
 21
        4.900002
 31
        0.000000
  0
LINE
  8
0
 10
       21.149979
 20
        4.900002
 30
        0.000000
 11
       21.349960
 21
        4.900002
 31
        0.000000
  0
LINE
  8
0
 10
       21.349960
 20
        4.900002
 30
        0.000000
 11
       21.349960
 21
        5.500000
 31
        0.000000
  0
LINE
  8
0
 10
       21.349960
 20
        5.500000
 30
        0.000000
 11
       21.949966
 21
        5.500000
 31
        0.000000
  0
LINE
  8
0
 10
       21.949966
 20
        5.500000
 30
        0.000000
 11
       21.949966
 21
        5.699997
 31
        0.000000
  0
LINE
  8
0
 10
       21.949966
 20
        5.699997
 30
        0.000000
 11
       21.349960
 21
        5.699997
 31
        0.000000
  0
LINE
  8
0
 10
       21.349960
 20
        5.699997
 30
        0.000000
 11
       21.349960
 21
        6.300003
 31
        0.000000
  0
LINE
  8
0
 10
       21.349960
 20
        6.300003
 30
        0.000000
 11
       21.149979
 21
        6.300003
 31
        0.000000
  0
LINE
  8
0
 10
       21.149979
 20
        6.300003
 30
        0.000000
 11
       21.149979
 21
        5.699997
 31
        0.000000
  0
LINE
  8
0
 10
       21.149979
 20
        5.699997
 30
        0.000000
 11
       20.549973
 21
        5.699997
 31
        0.000000
  0
LINE
  8
0
 10
       20.549973
 20
        5.699997
 30
        0.000000
 11
       20.549973
 21
        5.500000
 31
        0.000000
  0
LINE
  8
0
 10
       26.549973
 20
        5.500000
 30
        0.000000
 11
       27.149979
 21
        5.500000
 31
        0.000000
  0
LINE
  8
0
 10
       27.149979
 20
        5.500000
 30
        0.000000
 11
       27.149979
 21
        4.900002
 31
        0.000000
  0
LINE
  8
0
 10
       27.149979
 20
        4.900002
 30
        0.000000
 11
       27.349960
 21
        4.900002
 31
        0.000000
  0
LINE
  8
0
 10
       27.349960
 20
        4.900002
 30
        0.000000
 11
       27.349960
 21
        5.500000
 31
        0.000000
  0
LINE
  8
0
 10
       27.349960
 20
        5.500000
 30
        0.000000
 11
       27.949966
 21
        5.500000
 31
        0.000000
  0
LINE
  8
0
 10
       27.949966
 20
        5.500000
 30
        0.000000
 11
       27.949966
 21
        5.699997
 31
        0.000000
  0
LINE
  8
0
 10
       27.949966
 20
        5.699997
 30
        0.000000
 11
       27.349960
 21
        5.699997
 31
        0.000000
  0
LINE
  8
0
 10
       27.349960
 20
        5.699997
 30
        0.000000
 11
       27.349960
 21
        6.300003
 31
        0.000000
  0
LINE
  8
0
 10
       27.349960
 20
        6.300003
 30
        0.000000
 11
       27.149979
 21
        6.300003
 31
        0.000000
  0
LINE
  8
0
 10
       27.149979
 20
        6.300003
 30
        0.000000
 11
       27.149979
 21
        5.699997
 31
        0.000000
  0
LINE
  8
0
 10
       27.149979
 20
        5.699997
 30
        0.000000
 11
       26.549973
 21
        5.699997
 31
        0.000000
  0
LINE
  8
0
 10
       26.549973
 20
        5.699997
 30
        0.000000
 11
       26.549973
 21
        5.500000
 31
        0.000000
  0
LINE
  8
0
 10
       32.549973
 20
        5.500000
 30
        0.000000
 11
       33.149979
 21
        5.500000
 31
        0.000000
  0
LINE
  8
0
 10
       33.149979
 20
        5.500000
 30
        0.000000
 11
       33.149979
 21
        4.900002
 31
        0.000000
  0
LINE
  8
0
 10
       33.149979
 20
        4.900002
 30
        0.000000
 11
       33.349960
 21
        4.900002
 31
        0.000000
  0
LINE
  8
0
 10
       33.349960
 20
        4.900002
 30
        0.000000
 11
       33.349960
 21
        5.500000
 31
        0.000000
  0
LINE
  8
0
 10
       33.349960
 20
        5.500000
 30
        0.000000
 11
       33.949966
 21
        5.500000
 31
        0.000000
  0
LINE
  8
0
 10
       33.949966
 20
        5.500000
 30
        0.000000
 11
       33.949966
 21
        5.699997
 31
        0.000000
  0
LINE
  8
0
 10
       33.949966
 20
        5.699997
 30
        0.000000
 11
       33.349960
 21
        5.699997
 31
        0.000000
  0
LINE
  8
0
 10
       33.349960
 20
        5.699997
 30
        0.000000
 11
       33.349960
 21
        6.300003
 31
        0.000000
  0
LINE
  8
0
 10
       33.349960
 20
        6.300003
 30
        0.000000
 11
       33.149979
 21
        6.300003
 31
        0.000000
  0
LINE
  8
0
 10
       33.149979
 20
        6.300003
 30
        0.000000
 11
       33.149979
 21
        5.699997
 31
        0.000000
  0
LINE
  8
0
 10
       33.149979
 20
        5.699997
 30
        0.000000
 11
       32.549973
 21
        5.699997
 31
        0.000000
  0
LINE
  8
0
 10
       32.549973
 20
        5.699997
 30
        0.000000
 11
       32.549973
 21
        5.500000
 31
        0.000000
  0
LINE
  8
0
 10
       32.549973
 20
       -2.099998
 30
        0.000000
 11
       33.149979
 21
       -2.099998
 31
        0.000000
  0
LINE
  8
0
 10
       33.149979
 20
       -2.099998
 30
        0.000000
 11
       33.149979
 21
       -2.700005
 31
        0.000000
  0
LINE
  8
0
 10
       33.149979
 20
       -2.700005
 30
        0.000000
 11
       33.349960
 21
       -2.700005
 31
        0.000000
  0
LINE
  8
0
 10
       33.349960
 20
       -2.700005
 30
        0.000000
 11
       33.349960
 21
       -2.099998
 31
        0.000000
  0
LINE
  8
0
 10
       33.349960
 20
       -2.099998
 30
        0.000000
 11
       33.949966
 21
       -2.099998
 31
        0.000000
  0
LINE
  8
0
 10
       33.949966
 20
       -2.099998
 30
        0.000000
 11
       33.949966
 21
       -1.900002
 31
        0.000000
  0
LINE
  8
0
 10
       33.949966
 20
       -1.900002
 30
        0.000000
 11
       33.349960
 21
       -1.900002
 31
        0.000000
  0
LINE
  8
0
 10
       33.349960
 20
       -1.900002
 30
        0.000000
 11
       33.349960
 21
       -1.300003
 31
        0.000000
  0
LINE
  8
0
 10
       33.349960
 20
       -1.300003
 30
        0.000000
 11
       33.149979
 21
       -1.300003
 31
        0.000000
  0
LINE
  8
0
 10
       33.149979
 20
       -1.300003
 30
        0.000000
 11
       33.149979
 21
       -1.900002
 31
        0.000000
  0
LINE
  8
0
 10
       33.149979
 20
       -1.900002
 30
        0.000000
 11
       32.549973
 21
       -1.900002
 31
        0.000000
  0
LINE
  8
0
 10
       32.549973
 20
       -1.900002
 30
        0.000000
 11
       32.549973
 21
       -2.099998
 31
        0.000000
  0
LINE
  8
0
 10
       26.549973
 20
       -2.099998
 30
        0.000000
 11
       27.149979
 21
       -2.099998
 31
        0.000000
  0
LINE
  8
0
 10
       27.149979
 20
       -2.099998
 30
        0.000000
 11
       27.149979
 21
       -2.699997
 31
        0.000000
  0
LINE
  8
0
 10
       27.149979
 20
       -2.699997
 30
        0.000000
 11
       27.349960
 21
       -2.699997
 31
        0.000000
  0
LINE
  8
0
 10
       27.349960
 20
       -2.699997
 30
        0.000000
 11
       27.349960
 21
       -2.099998
 31
        0.000000
  0
LINE
  8
0
 10
       27.349960
 20
       -2.099998
 30
        0.000000
 11
       27.949966
 21
       -2.099998
 31
        0.000000
  0
LINE
  8
0
 10
       27.949966
 20
       -2.099998
 30
        0.000000
 11
       27.949966
 21
       -1.900002
 31
        0.000000
  0
LINE
  8
0
 10
       27.949966
 20
       -1.900002
 30
        0.000000
 11
       27.349960
 21
       -1.900002
 31
        0.000000
  0
LINE
  8
0
 10
       27.349960
 20
       -1.900002
 30
        0.000000
 11
       27.349960
 21
       -1.300003
 31
        0.000000
  0
LINE
  8
0
 10
       27.349960
 20
       -1.300003
 30
        0.000000
 11
       27.149979
 21
       -1.300003
 31
        0.000000
  0
LINE
  8
0
 10
       27.149979
 20
       -1.300003
 30
        0.000000
 11
       27.149979
 21
       -1.900002
 31
        0.000000
  0
LINE
  8
0
 10
       27.149979
 20
       -1.900002
 30
        0.000000
 11
       26.549973
 21
       -1.900002
 31
        0.000000
  0
LINE
  8
0
 10
       26.549973
 20
       -1.900002
 30
        0.000000
 11
       26.549973
 21
       -2.099998
 31
        0.000000
  0
LINE
  8
0
 10
       20.549973
 20
       -2.099998
 30
        0.000000
 11
       21.149979
 21
       -2.099998
 31
        0.000000
  0
LINE
  8
0
 10
       21.149979
 20
       -2.099998
 30
        0.000000
 11
       21.149979
 21
       -2.699997
 31
        0.000000
  0
LINE
  8
0
 10
       21.149979
 20
       -2.699997
 30
        0.000000
 11
       21.349960
 21
       -2.699997
 31
        0.000000
  0
LINE
  8
0
 10
       21.349960
 20
       -2.699997
 30
        0.000000
 11
       21.349960
 21
       -2.099998
 31
        0.000000
  0
LINE
  8
0
 10
       21.349960
 20
       -2.099998
 30
        0.000000
 11
       21.949966
 21
       -2.099998
 31
        0.000000
  0
LINE
  8
0
 10
       21.949966
 20
       -2.099998
 30
        0.000000
 11
       21.949966
 21
       -1.900002
 31
        0.000000
  0
LINE
  8
0
 10
       21.949966
 20
       -1.900002
 30
        0.000000
 11
       21.349960
 21
       -1.900002
 31
        0.000000
  0
LINE
  8
0
 10
       21.349960
 20
       -1.900002
 30
        0.000000
 11
       21.349960
 21
       -1.300003
 31
        0.000000
  0
LINE
  8
0
 10
       21.349960
 20
       -1.300003
 30
        0.000000
 11
       21.149979
 21
       -1.300003
 31
        0.000000
  0
LINE
  8
0
 10
       21.149979
 20
       -1.300003
 30
        0.000000
 11
       21.149979
 21
       -1.900002
 31
        0.000000
  0
LINE
  8
0
 10
       21.149979
 20
       -1.900002
 30
        0.000000
 11
       20.549973
 21
       -1.900002
 31
        0.000000
  0
LINE
  8
0
 10
       20.549973
 20
       -1.900002
 30
        0.000000
 11
       20.549973
 21
       -2.099998
 31
        0.000000
  0
LINE
  8
0
 10
       14.549973
 20
       -2.099998
 30
        0.000000
 11
       15.149979
 21
       -2.099998
 31
        0.000000
  0
LINE
  8
0
 10
       15.149979
 20
       -2.099998
 30
        0.000000
 11
       15.149979
 21
       -2.699997
 31
        0.000000
  0
LINE
  8
0
 10
       15.149979
 20
       -2.699997
 30
        0.000000
 11
       15.349960
 21
       -2.699997
 31
        0.000000
  0
LINE
  8
0
 10
       15.349960
 20
       -2.699997
 30
        0.000000
 11
       15.349960
 21
       -2.099998
 31
        0.000000
  0
LINE
  8
0
 10
       15.349960
 20
       -2.099998
 30
        0.000000
 11
       15.949966
 21
       -2.099998
 31
        0.000000
  0
LINE
  8
0
 10
       15.949966
 20
       -2.099998
 30
        0.000000
 11
       15.949966
 21
       -1.900002
 31
        0.000000
  0
LINE
  8
0
 10
       15.949966
 20
       -1.900002
 30
        0.000000
 11
       15.349960
 21
       -1.900002
 31
        0.000000
  0
LINE
  8
0
 10
       15.349960
 20
       -1.900002
 30
        0.000000
 11
       15.349960
 21
       -1.300003
 31
        0.000000
  0
LINE
  8
0
 10
       15.349960
 20
       -1.300003
 30
        0.000000
 11
       15.149979
 21
       -1.300003
 31
        0.000000
  0
LINE
  8
0
 10
       15.149979
 20
       -1.300003
 30
        0.000000
 11
       15.149979
 21
       -1.900002
 31
        0.000000
  0
LINE
  8
0
 10
       15.149979
 20
       -1.900002
 30
        0.000000
 11
       14.549973
 21
       -1.900002
 31
        0.000000
  0
LINE
  8
0
 10
       14.549973
 20
       -1.900002
 30
        0.000000
 11
       14.549973
 21
       -2.099998
 31
        0.000000
  0
LINE
  8
0
 10
        8.549973
 20
       -2.099998
 30
        0.000000
 11
        9.149979
 21
       -2.099998
 31
        0.000000
  0
LINE
  8
0
 10
        9.149979
 20
       -2.099998
 30
        0.000000
 11
        9.149979
 21
       -2.699997
 31
        0.000000
  0
LINE
  8
0
 10
        9.149979
 20
       -2.699997
 30
        0.000000
 11
        9.349960
 21
       -2.699997
 31
        0.000000
  0
LINE
  8
0
 10
        9.349960
 20
       -2.699997
 30
        0.000000
 11
        9.349960
 21
       -2.099998
 31
        0.000000
  0
LINE
  8
0
 10
        9.349960
 20
       -2.099998
 30
        0.000000
 11
        9.949966
 21
       -2.099998
 31
        0.000000
  0
LINE
  8
0
 10
        9.949966
 20
       -2.099998
 30
        0.000000
 11
        9.949966
 21
       -1.900002
 31
        0.000000
  0
LINE
  8
0
 10
        9.949966
 20
       -1.900002
 30
        0.000000
 11
        9.349960
 21
       -1.900002
 31
        0.000000
  0
LINE
  8
0
 10
        9.349960
 20
       -1.900002
 30
        0.000000
 11
        9.349960
 21
       -1.300003
 31
        0.000000
  0
LINE
  8
0
 10
        9.349960
 20
       -1.300003
 30
        0.000000
 11
        9.149979
 21
       -1.300003
 31
        0.000000
  0
LINE
  8
0
 10
        9.149979
 20
       -1.300003
 30
        0.000000
 11
        9.149979
 21
       -1.900002
 31
        0.000000
  0
LINE
  8
0
 10
        9.149979
 20
       -1.900002
 30
        0.000000
 11
        8.549973
 21
       -1.900002
 31
        0.000000
  0
LINE
  8
0
 10
        8.549973
 20
       -1.900002
 30
        0.000000
 11
        8.549973
 21
       -2.099998
 31
        0.000000
  0
LINE
  8
0
 10
        2.549973
 20
       -2.099998
 30
        0.000000
 11
        3.149979
 21
       -2.099998
 31
        0.000000
  0
LINE
  8
0
 10
        3.149979
 20
       -2.099998
 30
        0.000000
 11
        3.149979
 21
       -2.699997
 31
        0.000000
  0
LINE
  8
0
 10
        3.149979
 20
       -2.699997
 30
        0.000000
 11
        3.349960
 21
       -2.699997
 31
        0.000000
  0
LINE
  8
0
 10
        3.349960
 20
       -2.699997
 30
        0.000000
 11
        3.349960
 21
       -2.099998
 31
        0.000000
  0
LINE
  8
0
 10
        3.349960
 20
       -2.099998
 30
        0.000000
 11
        3.949966
 21
       -2.099998
 31
        0.000000
  0
LINE
  8
0
 10
        3.949966
 20
       -2.099998
 30
        0.000000
 11
        3.949966
 21
       -1.900002
 31
        0.000000
  0
LINE
  8
0
 10
        3.949966
 20
       -1.900002
 30
        0.000000
 11
        3.349960
 21
       -1.900002
 31
        0.000000
  0
LINE
  8
0
 10
        3.349960
 20
       -1.900002
 30
        0.000000
 11
        3.349960
 21
       -1.300003
 31
        0.000000
  0
LINE
  8
0
 10
        3.349960
 20
       -1.300003
 30
        0.000000
 11
        3.149979
 21
       -1.300003
 31
        0.000000
  0
LINE
  8
0
 10
        3.149979
 20
       -1.300003
 30
        0.000000
 11
        3.149979
 21
       -1.900002
 31
        0.000000
  0
LINE
  8
0
 10
        3.149979
 20
       -1.900002
 30
        0.000000
 11
        2.549973
 21
       -1.900002
 31
        0.000000
  0
LINE
  8
0
 10
        2.549973
 20
       -1.900002
 30
        0.000000
 11
        2.549973
 21
       -2.099998
 31
        0.000000
  0
LINE
  8
0
 10
       -3.450027
 20
       -2.099998
 30
        0.000000
 11
       -2.850021
 21
       -2.099998
 31
        0.000000
  0
LINE
  8
0
 10
       -2.850021
 20
       -2.099998
 30
        0.000000
 11
       -2.850021
 21
       -2.699997
 31
        0.000000
  0
LINE
  8
0
 10
       -2.850021
 20
       -2.699997
 30
        0.000000
 11
       -2.650040
 21
       -2.699997
 31
        0.000000
  0
LINE
  8
0
 10
       -2.650040
 20
       -2.699997
 30
        0.000000
 11
       -2.650040
 21
       -2.099998
 31
        0.000000
  0
LINE
  8
0
 10
       -2.650040
 20
       -2.099998
 30
        0.000000
 11
       -2.050034
 21
       -2.099998
 31
        0.000000
  0
LINE
  8
0
 10
       -2.050034
 20
       -2.099998
 30
        0.000000
 11
       -2.050034
 21
       -1.900002
 31
        0.000000
  0
LINE
  8
0
 10
       -2.050034
 20
       -1.900002
 30
        0.000000
 11
       -2.650040
 21
       -1.900002
 31
        0.000000
  0
LINE
  8
0
 10
       -2.650040
 20
       -1.900002
 30
        0.000000
 11
       -2.650040
 21
       -1.300003
 31
        0.000000
  0
LINE
  8
0
 10
       -2.650040
 20
       -1.300003
 30
        0.000000
 11
       -2.850021
 21
       -1.300003
 31
        0.000000
  0
LINE
  8
0
 10
       -2.850021
 20
       -1.300003
 30
        0.000000
 11
       -2.850021
 21
       -1.900002
 31
        0.000000
  0
LINE
  8
0
 10
       -2.850021
 20
       -1.900002
 30
        0.000000
 11
       -3.450027
 21
       -1.900002
 31
        0.000000
  0
LINE
  8
0
 10
       -3.450027
 20
       -1.900002
 30
        0.000000
 11
       -3.450027
 21
       -2.099998
 31
        0.000000
  0
LINE
  8
0
 10
       52.000031
 20
      -29.900024
 30
        0.000000
 11
      -57.399872
 21
      -29.900024
 31
        0.000000
  0
LINE
  8
0
 10
       54.400116
 20
       39.000000
 30
        0.000000
 11
       47.000275
 21
       39.000000
 31
        0.000000
  0
LINE
  8
0
 10
      162.815109
 20
      -18.749969
 30
        0.000000
 11
      162.815109
 21
      -39.999977
 31
        0.000000
  0
LINE
  8
0
 10
      160.015015
 20
       17.750031
 30
        0.000000
 11
      159.415405
 21
       17.771027
 31
        0.000000
  0
LINE
  8
0
 10
      160.015015
 20
       17.750031
 30
        0.000000
 11
      160.315094
 21
       14.750031
 31
        0.000000
  0
LINE
  8
0
 10
      162.815094
 20
       14.837433
 30
        0.000000
 11
      160.315094
 21
       14.750031
 31
        0.000000
  0
LINE
  8
0
 10
      162.815063
 20
       40.000031
 30
        0.000000
 11
      162.815094
 21
       14.837433
 31
        0.000000
  0
LINE
  8
0
 10
      161.923752
 20
      -17.858368
 30
        0.000000
 11
      162.815109
 21
      -18.749969
 31
        0.000000
  0
LINE
  8
0
 10
      162.815109
 20
      -43.499611
 30
        0.000000
 11
      162.815109
 21
      -39.999977
 31
        0.000000
  0
LINE
  8
0
 10
       54.400116
 20
       38.399902
 30
        0.000000
 11
       47.000275
 21
       38.399902
 31
        0.000000
  0
LINE
  8
0
 10
       45.500275
 20
       39.000000
 30
        0.000000
 11
       38.100128
 21
       39.000000
 31
        0.000000
  0
LINE
  8
0
 10
       45.500275
 20
       38.399902
 30
        0.000000
 11
       38.100128
 21
       38.399902
 31
        0.000000
  0
LINE
  8
0
 10
       36.600128
 20
       39.000000
 30
        0.000000
 11
       29.200226
 21
       39.000000
 31
        0.000000
  0
LINE
  8
0
 10
       36.600128
 20
       38.399902
 30
        0.000000
 11
       29.200226
 21
       38.399902
 31
        0.000000
  0
LINE
  8
0
 10
       27.700226
 20
       39.000000
 30
        0.000000
 11
       20.300323
 21
       39.000000
 31
        0.000000
  0
LINE
  8
0
 10
       27.700226
 20
       38.399902
 30
        0.000000
 11
       20.300323
 21
       38.399902
 31
        0.000000
  0
LINE
  8
0
 10
       18.800323
 20
       39.000000
 30
        0.000000
 11
       11.400177
 21
       39.000000
 31
        0.000000
  0
LINE
  8
0
 10
       18.800323
 20
       38.399902
 30
        0.000000
 11
       11.400177
 21
       38.399902
 31
        0.000000
  0
LINE
  8
0
 10
        9.900177
 20
       39.000000
 30
        0.000000
 11
        2.500275
 21
       39.000000
 31
        0.000000
  0
LINE
  8
0
 10
        9.900177
 20
       38.399902
 30
        0.000000
 11
        2.500275
 21
       38.399902
 31
        0.000000
  0
LINE
  8
0
 10
        1.000275
 20
       39.000000
 30
        0.000000
 11
       -6.399872
 21
       39.000000
 31
        0.000000
  0
LINE
  8
0
 10
        1.000275
 20
       38.399902
 30
        0.000000
 11
       -6.399872
 21
       38.399902
 31
        0.000000
  0
LINE
  8
0
 10
       -7.899872
 20
       39.000000
 30
        0.000000
 11
      -15.299774
 21
       39.000000
 31
        0.000000
  0
LINE
  8
0
 10
       -7.899872
 20
       38.399902
 30
        0.000000
 11
      -15.299774
 21
       38.399902
 31
        0.000000
  0
LINE
  8
0
 10
      -38.099823
 20
       39.000000
 30
        0.000000
 11
      -45.499969
 21
       39.000000
 31
        0.000000
  0
LINE
  8
0
 10
      -38.099823
 20
       38.399902
 30
        0.000000
 11
      -45.499969
 21
       38.399902
 31
        0.000000
  0
LINE
  8
0
 10
      -29.199921
 20
       39.000000
 30
        0.000000
 11
      -36.599823
 21
       39.000000
 31
        0.000000
  0
LINE
  8
0
 10
      -29.199921
 20
       38.399902
 30
        0.000000
 11
      -36.599823
 21
       38.399902
 31
        0.000000
  0
LINE
  8
0
 10
      -16.799774
 20
       39.000000
 30
        0.000000
 11
      -24.199677
 21
       39.000000
 31
        0.000000
  0
LINE
  8
0
 10
      -16.799774
 20
       38.399902
 30
        0.000000
 11
      -24.199677
 21
       38.399902
 31
        0.000000
  0
LINE
  8
0
 10
       47.000031
 20
       40.000000
 30
        0.000000
 11
       47.000031
 21
       29.899902
 31
        0.000000
  0
LINE
  8
0
 10
       45.500275
 20
       40.000000
 30
        0.000000
 11
       45.500275
 21
       29.899902
 31
        0.000000
  0
LINE
  8
0
 10
       38.100128
 20
       40.000000
 30
        0.000000
 11
       38.100128
 21
       29.899902
 31
        0.000000
  0
LINE
  8
0
 10
       36.600128
 20
       40.000000
 30
        0.000000
 11
       36.600128
 21
       29.899902
 31
        0.000000
  0
LINE
  8
0
 10
       29.200226
 20
       40.000000
 30
        0.000000
 11
       29.200226
 21
       29.899902
 31
        0.000000
  0
LINE
  8
0
 10
       27.700226
 20
       40.000000
 30
        0.000000
 11
       27.700226
 21
       29.899902
 31
        0.000000
  0
LINE
  8
0
 10
       20.300079
 20
       40.000000
 30
        0.000000
 11
       20.300079
 21
       29.899902
 31
        0.000000
  0
LINE
  8
0
 10
       18.800323
 20
       40.000000
 30
        0.000000
 11
       18.800323
 21
       29.899902
 31
        0.000000
  0
LINE
  8
0
 10
       11.400177
 20
       40.000000
 30
        0.000000
 11
       11.400177
 21
       29.899902
 31
        0.000000
  0
LINE
  8
0
 10
        9.900177
 20
       40.000000
 30
        0.000000
 11
        9.900177
 21
       29.899902
 31
        0.000000
  0
LINE
  8
0
 10
        2.500031
 20
       40.000000
 30
        0.000000
 11
        2.500031
 21
       29.899902
 31
        0.000000
  0
LINE
  8
0
 10
        1.000275
 20
       40.000000
 30
        0.000000
 11
        1.000275
 21
       29.899902
 31
        0.000000
  0
LINE
  8
0
 10
       -6.399872
 20
       40.000000
 30
        0.000000
 11
       -6.399872
 21
       29.899902
 31
        0.000000
  0
LINE
  8
0
 10
       -7.899872
 20
       40.000000
 30
        0.000000
 11
       -7.899872
 21
       29.899902
 31
        0.000000
  0
LINE
  8
0
 10
      -15.299774
 20
       40.000000
 30
        0.000000
 11
      -15.299774
 21
       29.899902
 31
        0.000000
  0
LINE
  8
0
 10
      -16.799774
 20
       40.000000
 30
        0.000000
 11
      -16.799774
 21
       29.899902
 31
        0.000000
  0
LINE
  8
0
 10
      -24.199677
 20
       40.000000
 30
        0.000000
 11
      -24.199677
 21
       29.899902
 31
        0.000000
  0
LINE
  8
0
 10
      -29.199921
 20
       40.000000
 30
        0.000000
 11
      -29.199921
 21
       29.899902
 31
        0.000000
  0
LINE
  8
0
 10
      -36.599823
 20
       40.000000
 30
        0.000000
 11
      -36.599823
 21
       29.899902
 31
        0.000000
  0
LINE
  8
0
 10
      -38.099823
 20
       40.000000
 30
        0.000000
 11
      -38.099823
 21
       29.899902
 31
        0.000000
  0
LINE
  8
0
 10
      -45.499969
 20
       40.000000
 30
        0.000000
 11
      -45.499969
 21
       29.899902
 31
        0.000000
  0
LINE
  8
0
 10
      -46.999969
 20
       40.000000
 30
        0.000000
 11
      -46.999969
 21
       29.899902
 31
        0.000000
  0
LINE
  8
0
 10
       47.000031
 20
      -40.000000
 30
        0.000000
 11
       47.000031
 21
      -29.900024
 31
        0.000000
  0
LINE
  8
0
 10
       45.500275
 20
      -40.000000
 30
        0.000000
 11
       45.500275
 21
      -29.900024
 31
        0.000000
  0
LINE
  8
0
 10
       45.500275
 20
      -39.000000
 30
        0.000000
 11
       38.100128
 21
      -39.000000
 31
        0.000000
  0
LINE
  8
0
 10
       45.500275
 20
      -38.400024
 30
        0.000000
 11
       38.100128
 21
      -38.400024
 31
        0.000000
  0
LINE
  8
0
 10
       38.100128
 20
      -40.000000
 30
        0.000000
 11
       38.100128
 21
      -29.900024
 31
        0.000000
  0
LINE
  8
0
 10
       36.600128
 20
      -40.000000
 30
        0.000000
 11
       36.600128
 21
      -29.900024
 31
        0.000000
  0
LINE
  8
0
 10
       36.600128
 20
      -39.000000
 30
        0.000000
 11
       29.200226
 21
      -39.000000
 31
        0.000000
  0
LINE
  8
0
 10
       36.600128
 20
      -38.400024
 30
        0.000000
 11
       29.200226
 21
      -38.400024
 31
        0.000000
  0
LINE
  8
0
 10
       29.200226
 20
      -40.000000
 30
        0.000000
 11
       29.200226
 21
      -29.900024
 31
        0.000000
  0
LINE
  8
0
 10
       27.700226
 20
      -40.000000
 30
        0.000000
 11
       27.700226
 21
      -29.900024
 31
        0.000000
  0
LINE
  8
0
 10
       27.700226
 20
      -39.000000
 30
        0.000000
 11
       20.300323
 21
      -39.000000
 31
        0.000000
  0
LINE
  8
0
 10
       27.700226
 20
      -38.400024
 30
        0.000000
 11
       20.300323
 21
      -38.400024
 31
        0.000000
  0
LINE
  8
0
 10
       20.300079
 20
      -40.000000
 30
        0.000000
 11
       20.300079
 21
      -29.900024
 31
        0.000000
  0
LINE
  8
0
 10
       18.800323
 20
      -40.000000
 30
        0.000000
 11
       18.800323
 21
      -29.900024
 31
        0.000000
  0
LINE
  8
0
 10
       18.800323
 20
      -39.000000
 30
        0.000000
 11
       11.400177
 21
      -39.000000
 31
        0.000000
  0
LINE
  8
0
 10
       18.800323
 20
      -38.400024
 30
        0.000000
 11
       11.400177
 21
      -38.400024
 31
        0.000000
  0
LINE
  8
0
 10
       11.400177
 20
      -40.000000
 30
        0.000000
 11
       11.400177
 21
      -29.900024
 31
        0.000000
  0
LINE
  8
0
 10
        9.900177
 20
      -40.000000
 30
        0.000000
 11
        9.900177
 21
      -29.900024
 31
        0.000000
  0
LINE
  8
0
 10
        9.900177
 20
      -39.000000
 30
        0.000000
 11
        2.500275
 21
      -39.000000
 31
        0.000000
  0
LINE
  8
0
 10
        9.900177
 20
      -38.400024
 30
        0.000000
 11
        2.500275
 21
      -38.400024
 31
        0.000000
  0
LINE
  8
0
 10
        2.500031
 20
      -40.000000
 30
        0.000000
 11
        2.500031
 21
      -29.900024
 31
        0.000000
  0
LINE
  8
0
 10
        1.000275
 20
      -40.000000
 30
        0.000000
 11
        1.000275
 21
      -29.900024
 31
        0.000000
  0
LINE
  8
0
 10
        1.000275
 20
      -39.000000
 30
        0.000000
 11
       -6.399872
 21
      -39.000000
 31
        0.000000
  0
LINE
  8
0
 10
        1.000275
 20
      -38.400024
 30
        0.000000
 11
       -6.399872
 21
      -38.400024
 31
        0.000000
  0
LINE
  8
0
 10
       -6.399872
 20
      -40.000000
 30
        0.000000
 11
       -6.399872
 21
      -29.900024
 31
        0.000000
  0
LINE
  8
0
 10
       -7.899872
 20
      -40.000000
 30
        0.000000
 11
       -7.899872
 21
      -29.900024
 31
        0.000000
  0
LINE
  8
0
 10
       -7.899872
 20
      -39.000000
 30
        0.000000
 11
      -15.299774
 21
      -39.000000
 31
        0.000000
  0
LINE
  8
0
 10
       -7.899872
 20
      -38.400024
 30
        0.000000
 11
      -15.299774
 21
      -38.400024
 31
        0.000000
  0
LINE
  8
0
 10
      -38.099823
 20
      -39.000000
 30
        0.000000
 11
      -45.499969
 21
      -39.000000
 31
        0.000000
  0
LINE
  8
0
 10
      -38.099823
 20
      -38.400024
 30
        0.000000
 11
      -45.499969
 21
      -38.400024
 31
        0.000000
  0
LINE
  8
0
 10
      -29.199921
 20
      -39.000000
 30
        0.000000
 11
      -36.599823
 21
      -39.000000
 31
        0.000000
  0
LINE
  8
0
 10
      -29.199921
 20
      -38.400024
 30
        0.000000
 11
      -36.599823
 21
      -38.400024
 31
        0.000000
  0
LINE
  8
0
 10
      -16.799774
 20
      -39.000000
 30
        0.000000
 11
      -24.199677
 21
      -39.000000
 31
        0.000000
  0
LINE
  8
0
 10
      -16.799774
 20
      -38.400024
 30
        0.000000
 11
      -24.199677
 21
      -38.400024
 31
        0.000000
  0
LINE
  8
0
 10
      -15.299774
 20
      -40.000000
 30
        0.000000
 11
      -15.299774
 21
      -29.900024
 31
        0.000000
  0
LINE
  8
0
 10
      -16.799774
 20
      -40.000000
 30
        0.000000
 11
      -16.799774
 21
      -29.900024
 31
        0.000000
  0
LINE
  8
0
 10
      -24.199677
 20
      -40.000000
 30
        0.000000
 11
      -24.199677
 21
      -29.900024
 31
        0.000000
  0
LINE
  8
0
 10
      -29.199921
 20
      -40.000000
 30
        0.000000
 11
      -29.199921
 21
      -29.900024
 31
        0.000000
  0
LINE
  8
0
 10
      -36.599823
 20
      -40.000000
 30
        0.000000
 11
      -36.599823
 21
      -29.900024
 31
        0.000000
  0
LINE
  8
0
 10
      -38.099823
 20
      -40.000000
 30
        0.000000
 11
      -38.099823
 21
      -29.900024
 31
        0.000000
  0
LINE
  8
0
 10
      -45.499969
 20
      -40.000000
 30
        0.000000
 11
      -45.499969
 21
      -29.900024
 31
        0.000000
  0
LINE
  8
0
 10
      -46.999969
 20
      -40.000000
 30
        0.000000
 11
      -46.999969
 21
      -29.900024
 31
        0.000000
  0
LINE
  8
0
 10
      -34.999969
 20
      -29.900024
 30
        0.000000
 11
      -36.499969
 21
      -29.900024
 31
        0.000000
  0
LINE
  8
0
 10
      -43.499969
 20
      -29.900024
 30
        0.000000
 11
      -44.999969
 21
      -29.900024
 31
        0.000000
  0
LINE
  8
0
 10
      -51.999969
 20
      -29.900024
 30
        0.000000
 11
      -53.499969
 21
      -29.900024
 31
        0.000000
  0
LINE
  8
0
 10
      -22.999969
 20
      -29.900024
 30
        0.000000
 11
      -27.999969
 21
      -29.900024
 31
        0.000000
  0
LINE
  8
0
 10
      -44.999969
 20
       29.899902
 30
        0.000000
 11
      -43.499969
 21
       29.899902
 31
        0.000000
  0
LINE
  8
0
 10
      -36.499969
 20
       29.899902
 30
        0.000000
 11
      -34.999969
 21
       29.899902
 31
        0.000000
  0
LINE
  8
0
 10
      -27.999969
 20
       29.899902
 30
        0.000000
 11
      -22.999969
 21
       29.899902
 31
        0.000000
  0
LINE
  8
0
 10
      -15.999969
 20
       29.899902
 30
        0.000000
 11
      -14.499969
 21
       29.899902
 31
        0.000000
  0
LINE
  8
0
 10
       -7.499969
 20
       29.899902
 30
        0.000000
 11
       -5.999969
 21
       29.899902
 31
        0.000000
  0
LINE
  8
0
 10
        1.000031
 20
       29.899902
 30
        0.000000
 11
        2.500031
 21
       29.899902
 31
        0.000000
  0
LINE
  8
0
 10
        9.500031
 20
       29.899902
 30
        0.000000
 11
       11.000031
 21
       29.899902
 31
        0.000000
  0
LINE
  8
0
 10
       18.000031
 20
       29.899902
 30
        0.000000
 11
       19.500031
 21
       29.899902
 31
        0.000000
  0
LINE
  8
0
 10
       26.500031
 20
       29.899902
 30
        0.000000
 11
       28.000031
 21
       29.899902
 31
        0.000000
  0
LINE
  8
0
 10
       35.000031
 20
       29.899902
 30
        0.000000
 11
       36.500031
 21
       29.899902
 31
        0.000000
  0
LINE
  8
0
 10
       43.500031
 20
       29.899902
 30
        0.000000
 11
       45.000031
 21
       29.899902
 31
        0.000000
  0
LINE
  8
0
 10
      -14.499969
 20
      -29.900024
 30
        0.000000
 11
      -15.999969
 21
      -29.900024
 31
        0.000000
  0
LINE
  8
0
 10
       -5.999969
 20
      -29.900024
 30
        0.000000
 11
       -7.499969
 21
      -29.900024
 31
        0.000000
  0
LINE
  8
0
 10
        2.500031
 20
      -29.900024
 30
        0.000000
 11
        1.000031
 21
      -29.900024
 31
        0.000000
  0
LINE
  8
0
 10
       11.000031
 20
      -29.900024
 30
        0.000000
 11
        9.500031
 21
      -29.900024
 31
        0.000000
  0
LINE
  8
0
 10
       19.500031
 20
      -29.900024
 30
        0.000000
 11
       18.000031
 21
      -29.900024
 31
        0.000000
  0
LINE
  8
0
 10
       28.000031
 20
      -29.900024
 30
        0.000000
 11
       26.500031
 21
      -29.900024
 31
        0.000000
  0
LINE
  8
0
 10
       36.500031
 20
      -29.900024
 30
        0.000000
 11
       35.000031
 21
      -29.900024
 31
        0.000000
  0
LINE
  8
0
 10
       56.400116
 20
      -29.900024
 30
        0.000000
 11
       52.000031
 21
      -29.900024
 31
        0.000000
  0
CIRCLE
  8
0
 10
       61.999969
 20
      -33.900024
 30
        0.000000
 40
        4.000000
  0
ARC
  8
0
 10
      -67.499969
 20
       37.500000
 30
        0.000000
 40
        2.500000
 50
       90.000000
 51
      180.000015
  0
ENDSEC
  0
EOF
