  0
SECTION
  2
HEADER
  9
$ACADVER
  1
AC1006
  9
$INSBASE
 10
0.0
 20
0.0
 30
0.0
  9
$EXTMIN
 10
     -270.966919
 20
     -270.966919
  9
$EXTMAX
 10
      158.000000
 20
       43.500000
  9
$LIMMIN
 10
     -270.966919
 20
     -270.966919
  9
$LIMMAX
 10
      158.000000
 20
       43.500000
  9
$VIEWCTR
 10
      -56.483459
 20
      -56.483459
  9
$ORTHOMODE
 70
     0
  9
$ANGBASE
 50
0.0
  9
$ANGDIR
 70
     0
  9
$SPLINETYPE
 70
     6
  9
$SPLINESEGS
 70
     8
9
$DIMASZ
 40
        6.000000
9
$DIMEXE
 40
        1.500000
9
$DIMEXO
 40
        2.500000
9
$DIMTXT
 40
        5.000000
9
$DIMGAP
 40
        1.500000
9
$DIMTAD
 70
1
9
$DIMTIH
 70
0
9
$DIMTOH
 70
0
  0
ENDSEC
  0
SECTION
  2
TABLES
  0
TABLE
  2
LTYPE
 70
     5
  0
LTYPE
  2
CONTINUOUS
 70
    64
  3
SOLID LINE
 72
    65
 73
     0
 40
0.0
  0
LTYPE
  2
DASHED
 70
    64
  3
-- -- -- -- -- --
 72
    65
 73
     2
 40
  0.75  
 49
  0.50  
 49
 -0.25  
  0
LTYPE
  2
DOT
 70
    64
  3
....................
 72
    65
 73
     2
 40
  0.25  
 49
  0.02  
 49
 -0.23  
  0
LTYPE
  2
CENTER
 70
    64
  3
-- . -- . -- . -- .
 72
    65
 73
    4
 40
  2.00  
 49
  1.25  
 49
 -0.25  
 49
  0.25  
 49
 -0.25  
  0
LTYPE
  2
PHANTOM
 70
    64
  3
-- .. -- .. -- ..
 72
    65
 73
    6
 40
  2.50  
 49
  1.25  
 49
 -0.25  
 49
  0.25  
 49
 -0.25  
 49
  0.25  
 49
 -0.25  
  0
ENDTAB
  0
TABLE
  2
LAYER
 70
     1
  0
LAYER
  2
0
 70
    64
 62
     3
  6
CONTINUOUS
  0
ENDTAB
  0
TABLE
  2
STYLE
 70
     2
  0
STYLE
  2
STANDARD
 70
    64
 40
0.0
 41
1.0
 50
0.0
 71
     0
 42
5.0
  3
ROMANS
  4
BIGFONT
  0
STYLE
  2
BIGFONT
 70
    64
 40
0.0
 41
1.0
 50
0.0
 71
     0
 42
5.0
  3
ROMANS
  4
BIGFONT
  0
ENDTAB
  0
TABLE
  2
VIEW
 70
     0
  0
ENDTAB
  0
TABLE
  2
UCS
 70
     0
  0
ENDTAB
  0
TABLE
  2
DWGMGR
 70
     0
  0
ENDTAB
  0
ENDSEC
  0
SECTION
  2
BLOCKS
  0
BLOCK
  8
0
  2
BLK0001
 70
    64
 10
        0.000000
 20
        0.000000
  0
TEXT
  8
0
 62
  2
 10
       31.092371
 20
     -125.357147
 30
        0.000000
 40
        3.340000
  1
２５０
 50
       90.000000
 41
        1.000000
 51
        0.000000
  7
BIGFONT
  0
LINE
  8
0
 62
  2
 10
       11.333333
 20
        5.000000
 30
        0.000000
 11
       32.959038
 21
        5.000000
 31
        0.000000
  0
LINE
  8
0
 62
  2
 10
       11.333333
 20
     -245.000015
 30
        0.000000
 11
       32.959038
 21
     -245.000015
 31
        0.000000
  0
LINE
  8
0
 62
  2
 10
       32.591190
 20
        1.400000
 30
        0.000000
 11
       32.025703
 21
        5.000000
 31
        0.000000
  0
LINE
  8
0
 62
  2
 10
       32.025703
 20
        5.000000
 30
        0.000000
 11
       31.460217
 21
        1.400000
 31
        0.000000
  0
LINE
  8
0
 62
  2
 10
       31.460217
 20
     -241.400009
 30
        0.000000
 11
       32.025703
 21
     -245.000015
 31
        0.000000
  0
LINE
  8
0
 62
  2
 10
       32.025703
 20
     -245.000015
 30
        0.000000
 11
       32.591190
 21
     -241.400009
 31
        0.000000
  0
LINE
  8
0
 62
  2
 10
       32.025703
 20
        5.000000
 30
        0.000000
 11
       32.025703
 21
     -245.000015
 31
        0.000000
  0
ENDBLK
  0
BLOCK
  8
0
  2
BLK0002
 70
    64
 10
        0.000000
 20
        0.000000
  0
TEXT
  8
0
 62
  2
 10
       12.192871
 20
     -259.100250
 30
        0.000000
 40
        3.340000
  1
１２
 50
        0.000000
 41
        1.000000
 51
        0.000000
  7
BIGFONT
  0
LINE
  8
0
 62
  2
 10
       10.000000
 20
     -246.333344
 30
        0.000000
 11
       10.000000
 21
     -260.966919
 31
        0.000000
  0
LINE
  8
0
 62
  2
 10
       21.100037
 20
     -224.875687
 30
        0.000000
 11
       21.100037
 21
     -260.966919
 31
        0.000000
  0
LINE
  8
0
 62
  2
 10
       13.600000
 20
     -259.468109
 30
        0.000000
 11
       10.000000
 21
     -260.033600
 31
        0.000000
  0
LINE
  8
0
 62
  2
 10
       10.000000
 20
     -260.033600
 30
        0.000000
 11
       13.600000
 21
     -260.599091
 31
        0.000000
  0
LINE
  8
0
 62
  2
 10
       17.500036
 20
     -260.599091
 30
        0.000000
 11
       21.100037
 21
     -260.033600
 31
        0.000000
  0
LINE
  8
0
 62
  2
 10
       21.100037
 20
     -260.033600
 30
        0.000000
 11
       17.500036
 21
     -259.468109
 31
        0.000000
  0
LINE
  8
0
 62
  2
 10
       10.000000
 20
     -260.033600
 30
        0.000000
 11
       21.100037
 21
     -260.033600
 31
        0.000000
  0
ENDBLK
  0
BLOCK
  8
0
  2
BLK0003
 70
    64
 10
        0.000000
 20
        0.000000
  0
TEXT
  8
0
 62
  2
 10
      104.792877
 20
     -269.100250
 30
        0.000000
 40
        3.340000
  1
９５
 50
        0.000000
 41
        1.000000
 51
        0.000000
  7
BIGFONT
  0
LINE
  8
0
 62
  2
 10
      155.000000
 20
     -246.333344
 30
        0.000000
 11
      155.000000
 21
     -270.966919
 31
        0.000000
  0
LINE
  8
0
 62
  2
 10
       61.300049
 20
     -209.073318
 30
        0.000000
 11
       61.300049
 21
     -270.966919
 31
        0.000000
  0
LINE
  8
0
 62
  2
 10
      151.399994
 20
     -270.599091
 30
        0.000000
 11
      155.000000
 21
     -270.033600
 31
        0.000000
  0
LINE
  8
0
 62
  2
 10
      155.000000
 20
     -270.033600
 30
        0.000000
 11
      151.399994
 21
     -269.468109
 31
        0.000000
  0
LINE
  8
0
 62
  2
 10
       64.900047
 20
     -269.468109
 30
        0.000000
 11
       61.300049
 21
     -270.033600
 31
        0.000000
  0
LINE
  8
0
 62
  2
 10
       61.300049
 20
     -270.033600
 30
        0.000000
 11
       64.900047
 21
     -270.599091
 31
        0.000000
  0
LINE
  8
0
 62
  2
 10
      155.000000
 20
     -270.033600
 30
        0.000000
 11
       61.300049
 21
     -270.033600
 31
        0.000000
  0
ENDBLK
  0
BLOCK
  8
0
  2
BLK0004
 70
    64
 10
        0.000000
 20
        0.000000
  0
TEXT
  8
0
 62
  2
 10
      111.642853
 20
     -259.100250
 30
        0.000000
 40
        3.340000
  1
８０
 50
        0.000000
 41
        1.000000
 51
        0.000000
  7
BIGFONT
  0
LINE
  8
0
 62
  2
 10
       75.000000
 20
     -236.333344
 30
        0.000000
 11
       75.000000
 21
     -260.966919
 31
        0.000000
  0
LINE
  8
0
 62
  2
 10
      155.000000
 20
     -246.333344
 30
        0.000000
 11
      155.000000
 21
     -260.966919
 31
        0.000000
  0
LINE
  8
0
 62
  2
 10
       78.599998
 20
     -259.468109
 30
        0.000000
 11
       75.000000
 21
     -260.033600
 31
        0.000000
  0
LINE
  8
0
 62
  2
 10
       75.000000
 20
     -260.033600
 30
        0.000000
 11
       78.599998
 21
     -260.599091
 31
        0.000000
  0
LINE
  8
0
 62
  2
 10
      151.399994
 20
     -260.599091
 30
        0.000000
 11
      155.000000
 21
     -260.033600
 31
        0.000000
  0
LINE
  8
0
 62
  2
 10
      155.000000
 20
     -260.033600
 30
        0.000000
 11
      151.399994
 21
     -259.468109
 31
        0.000000
  0
LINE
  8
0
 62
  2
 10
       75.000000
 20
     -260.033600
 30
        0.000000
 11
      155.000000
 21
     -260.033600
 31
        0.000000
  0
ENDBLK
  0
BLOCK
  8
0
  2
BLK0005
 70
    64
 10
        0.000000
 20
        0.000000
  0
TEXT
  8
0
 62
  2
 10
       -6.607147
 20
     -259.100250
 30
        0.000000
 40
        3.340000
  1
１８。５
 50
        0.000000
 41
        1.000000
 51
        0.000000
  7
BIGFONT
  0
LINE
  8
0
 62
  2
 10
       10.000000
 20
     -246.333344
 30
        0.000000
 11
       10.000000
 21
     -260.966919
 31
        0.000000
  0
LINE
  8
0
 62
  2
 10
       -8.500000
 20
     -246.333344
 30
        0.000000
 11
       -8.500000
 21
     -260.966919
 31
        0.000000
  0
LINE
  8
0
 62
  2
 10
        6.400000
 20
     -260.599091
 30
        0.000000
 11
       10.000000
 21
     -260.033600
 31
        0.000000
  0
LINE
  8
0
 62
  2
 10
       10.000000
 20
     -260.033600
 30
        0.000000
 11
        6.400000
 21
     -259.468109
 31
        0.000000
  0
LINE
  8
0
 62
  2
 10
       -4.900000
 20
     -259.468109
 30
        0.000000
 11
       -8.500000
 21
     -260.033600
 31
        0.000000
  0
LINE
  8
0
 62
  2
 10
       -8.500000
 20
     -260.033600
 30
        0.000000
 11
       -4.900000
 21
     -260.599091
 31
        0.000000
  0
LINE
  8
0
 62
  2
 10
       10.000000
 20
     -260.033600
 30
        0.000000
 11
       -8.500000
 21
     -260.033600
 31
        0.000000
  0
ENDBLK
  0
ENDSEC
  0
SECTION
  2
ENTITIES
  0
LINE
  8
0
 10
       92.800000
 20
       39.000000
 30
        0.000000
 11
       92.800000
 21
       26.000000
 31
        0.000000
  0
LINE
  8
0
 10
       92.800000
 20
       39.000000
 30
        0.000000
 11
       94.800000
 21
       39.000000
 31
        0.000000
  0
LINE
  8
0
 10
       88.800000
 20
       39.000000
 30
        0.000000
 11
       90.800000
 21
       39.000000
 31
        0.000000
  0
LINE
  8
0
 10
       88.800000
 20
       39.000000
 30
        0.000000
 11
       88.800000
 21
       26.000000
 31
        0.000000
  0
LINE
  8
0
 10
       88.800000
 20
       26.000000
 30
        0.000000
 11
       90.800000
 21
       26.000000
 31
        0.000000
  0
LINE
  8
0
 10
       90.800000
 20
       39.000000
 30
        0.000000
 11
       90.800000
 21
       26.000000
 31
        0.000000
  0
LINE
  8
0
 10
       86.800000
 20
       39.000000
 30
        0.000000
 11
       86.800000
 21
       26.000000
 31
        0.000000
  0
LINE
  8
0
 10
       84.800000
 20
       26.000000
 30
        0.000000
 11
       86.800000
 21
       26.000000
 31
        0.000000
  0
LINE
  8
0
 10
       84.800000
 20
       39.000000
 30
        0.000000
 11
       84.800000
 21
       26.000000
 31
        0.000000
  0
LINE
  8
0
 10
       84.800000
 20
       39.000000
 30
        0.000000
 11
       86.800000
 21
       39.000000
 31
        0.000000
  0
TEXT
  8
0
 62
  2
 10
       -6.666462
 20
       38.207898
 30
        0.000000
 40
        4.175000
  1
ＪＷ１ＥＡ
 50
        0.000000
 41
        1.000000
 51
        0.000000
  7
BIGFONT
  0
INSERT
  8
0
 62
  5
  2
BLK0001
 10
        0.000000
 20
        0.000000
  0
INSERT
  8
0
 62
  5
  2
BLK0002
 10
        0.000000
 20
        0.000000
  0
INSERT
  8
0
 62
  5
  2
BLK0003
 10
        0.000000
 20
        0.000000
  0
INSERT
  8
0
 62
  5
  2
BLK0004
 10
        0.000000
 20
        0.000000
  0
INSERT
  8
0
 62
  5
  2
BLK0005
 10
        0.000000
 20
        0.000000
  0
LINE
  8
0
 10
      129.064941
 20
     -216.142471
 30
        0.000000
 11
      129.064941
 21
     -223.142471
 31
        0.000000
  0
LINE
  8
0
 10
      129.064941
 20
     -223.142471
 30
        0.000000
 11
      124.264893
 21
     -223.142471
 31
        0.000000
  0
LINE
  8
0
 10
      124.264893
 20
     -222.742569
 30
        0.000000
 11
      124.264893
 21
     -223.142471
 31
        0.000000
  0
CIRCLE
  8
0
 10
      126.510010
 20
     -219.442520
 30
        0.000000
 40
        1.150024
  0
LINE
  8
0
 10
      125.264893
 20
     -216.142471
 30
        0.000000
 11
      125.264893
 21
     -222.742569
 31
        0.000000
  0
LINE
  8
0
 10
       90.935059
 20
     -216.142471
 30
        0.000000
 11
       90.935059
 21
     -223.142471
 31
        0.000000
  0
LINE
  8
0
 10
      129.064941
 20
     -216.142471
 30
        0.000000
 11
       90.935059
 21
     -216.142471
 31
        0.000000
  0
LINE
  8
0
 10
       95.735107
 20
     -223.142471
 30
        0.000000
 11
       90.935059
 21
     -223.142471
 31
        0.000000
  0
CIRCLE
  8
0
 10
       93.489990
 20
     -219.442520
 30
        0.000000
 40
        1.150024
  0
LINE
  8
0
 10
       95.735107
 20
     -222.742569
 30
        0.000000
 11
       95.735107
 21
     -223.142471
 31
        0.000000
  0
LINE
  8
0
 10
       94.735107
 20
     -216.142471
 30
        0.000000
 11
       94.735107
 21
     -222.742569
 31
        0.000000
  0
LINE
  8
0
 10
      129.064941
 20
     -222.742569
 30
        0.000000
 11
       90.935059
 21
     -222.742569
 31
        0.000000
  0
LINE
  8
0
 10
        3.100098
 20
     -212.240005
 30
        0.000000
 11
        3.100098
 21
     -167.760010
 31
        0.000000
  0
LINE
  8
0
 10
       -3.500000
 20
     -212.240005
 30
        0.000000
 11
       -3.500000
 21
     -167.760010
 31
        0.000000
  0
LINE
  8
0
 10
        3.100098
 20
     -167.760010
 30
        0.000000
 11
       -3.899902
 21
     -167.760010
 31
        0.000000
  0
LINE
  8
0
 10
        3.100098
 20
     -212.240005
 30
        0.000000
 11
       -3.899902
 21
     -212.240005
 31
        0.000000
  0
LINE
  8
0
 10
       -3.899902
 20
     -212.240005
 30
        0.000000
 11
       -3.899902
 21
     -207.439957
 31
        0.000000
  0
CIRCLE
  8
0
 10
       -0.199951
 20
     -209.685074
 30
        0.000000
 40
        1.149902
  0
CIRCLE
  8
0
 10
       -0.199951
 20
     -170.314941
 30
        0.000000
 40
        1.149902
  0
LINE
  8
0
 10
       -3.899902
 20
     -172.560059
 30
        0.000000
 11
       -3.899902
 21
     -167.760010
 31
        0.000000
  0
LINE
  8
0
 10
       -3.500000
 20
     -172.560059
 30
        0.000000
 11
       -3.899902
 21
     -172.560059
 31
        0.000000
  0
LINE
  8
0
 10
       -3.500000
 20
     -207.439957
 30
        0.000000
 11
       -3.899902
 21
     -207.439957
 31
        0.000000
  0
LINE
  8
0
 10
        3.100098
 20
     -171.560059
 30
        0.000000
 11
       -3.500000
 21
     -171.560059
 31
        0.000000
  0
LINE
  8
0
 10
        3.100098
 20
     -208.439957
 30
        0.000000
 11
       -3.500000
 21
     -208.439957
 31
        0.000000
  0
LINE
  8
0
 10
        3.100098
 20
      -72.239990
 30
        0.000000
 11
        3.100098
 21
      -27.760010
 31
        0.000000
  0
LINE
  8
0
 10
       -3.500000
 20
      -72.239990
 30
        0.000000
 11
       -3.500000
 21
      -27.760010
 31
        0.000000
  0
LINE
  8
0
 10
        3.100098
 20
      -27.760010
 30
        0.000000
 11
       -3.899902
 21
      -27.760010
 31
        0.000000
  0
LINE
  8
0
 10
        3.100098
 20
      -72.239990
 30
        0.000000
 11
       -3.899902
 21
      -72.239990
 31
        0.000000
  0
LINE
  8
0
 10
       -3.899902
 20
      -72.239990
 30
        0.000000
 11
       -3.899902
 21
      -67.439941
 31
        0.000000
  0
CIRCLE
  8
0
 10
       -0.199951
 20
      -69.685059
 30
        0.000000
 40
        1.149902
  0
CIRCLE
  8
0
 10
       -0.199951
 20
      -30.314941
 30
        0.000000
 40
        1.149902
  0
LINE
  8
0
 10
       -3.899902
 20
      -32.560059
 30
        0.000000
 11
       -3.899902
 21
      -27.760010
 31
        0.000000
  0
LINE
  8
0
 10
       -3.500000
 20
      -32.560059
 30
        0.000000
 11
       -3.899902
 21
      -32.560059
 31
        0.000000
  0
LINE
  8
0
 10
       -3.500000
 20
      -67.439941
 30
        0.000000
 11
       -3.899902
 21
      -67.439941
 31
        0.000000
  0
LINE
  8
0
 10
        3.100098
 20
      -31.560059
 30
        0.000000
 11
       -3.500000
 21
      -31.560059
 31
        0.000000
  0
LINE
  8
0
 10
        3.100098
 20
      -68.439941
 30
        0.000000
 11
       -3.500000
 21
      -68.439941
 31
        0.000000
  0
LINE
  8
0
 10
       -3.899902
 20
      -26.000000
 30
        0.000000
 11
       -3.899902
 21
      -74.000000
 31
        0.000000
  0
CIRCLE
  8
0
 10
       -0.399902
 20
      -20.000000
 30
        0.000000
 40
        1.500000
  0
LINE
  8
0
 10
       10.000000
 20
        5.000000
 30
        0.000000
 11
       10.000000
 21
     -245.000015
 31
        0.000000
  0
LINE
  8
0
 10
       -8.500000
 20
        5.000000
 30
        0.000000
 11
       -8.500000
 21
     -245.000015
 31
        0.000000
  0
LINE
  8
0
 10
       -5.000000
 20
      -26.000000
 30
        0.000000
 11
        4.500000
 21
      -26.000000
 31
        0.000000
  0
LINE
  8
0
 10
        4.500000
 20
      -26.000000
 30
        0.000000
 11
        4.500000
 21
      -74.000000
 31
        0.000000
  0
LINE
  8
0
 10
       -5.000000
 20
      -26.000000
 30
        0.000000
 11
       -5.000000
 21
      -74.000000
 31
        0.000000
  0
LINE
  8
0
 10
       -5.000000
 20
      -74.000000
 30
        0.000000
 11
        4.500000
 21
      -74.000000
 31
        0.000000
  0
LINE
  8
0
 10
       -8.500000
 20
       -5.000000
 30
        0.000000
 11
       10.000000
 21
       -5.000000
 31
        0.000000
  0
LINE
  8
0
 10
       -8.500000
 20
        5.000000
 30
        0.000000
 11
       10.000000
 21
        5.000000
 31
        0.000000
  0
LINE
  8
0
 10
       -7.500000
 20
       -5.000000
 30
        0.000000
 11
       -7.500000
 21
        5.000000
 31
        0.000000
  0
LINE
  8
0
 10
        9.000000
 20
       -5.000000
 30
        0.000000
 11
        9.000000
 21
        5.000000
 31
        0.000000
  0
LINE
  8
0
 10
       10.000000
 20
     -245.000015
 30
        0.000000
 11
       -8.500000
 21
     -245.000015
 31
        0.000000
  0
LINE
  8
0
 10
       -8.500000
 20
     -235.000015
 30
        0.000000
 11
        9.000000
 21
     -235.000015
 31
        0.000000
  0
LINE
  8
0
 10
        9.000000
 20
     -235.000015
 30
        0.000000
 11
       10.000000
 21
     -235.000015
 31
        0.000000
  0
LINE
  8
0
 10
        9.000000
 20
     -245.000015
 30
        0.000000
 11
        9.000000
 21
     -235.000015
 31
        0.000000
  0
LINE
  8
0
 10
       -7.500000
 20
     -245.000015
 30
        0.000000
 11
       -7.500000
 21
     -235.000015
 31
        0.000000
  0
CIRCLE
  8
0
 10
       -0.399902
 20
      -20.000000
 30
        0.000000
 40
        2.000000
  0
ARC
  8
0
 10
        9.000000
 20
       -6.000000
 30
        0.000000
 40
        1.000000
 50
        0.000000
 51
       90.000000
  0
LINE
  8
0
 10
        4.500000
 20
     -166.000000
 30
        0.000000
 11
        4.500000
 21
     -214.000015
 31
        0.000000
  0
LINE
  8
0
 10
       -5.000000
 20
     -166.000000
 30
        0.000000
 11
        4.500000
 21
     -166.000000
 31
        0.000000
  0
LINE
  8
0
 10
       -5.000000
 20
     -166.000000
 30
        0.000000
 11
       -5.000000
 21
     -214.000015
 31
        0.000000
  0
LINE
  8
0
 10
       -5.000000
 20
     -214.000015
 30
        0.000000
 11
        4.500000
 21
     -214.000015
 31
        0.000000
  0
LINE
  8
0
 10
       -3.899902
 20
     -166.000000
 30
        0.000000
 11
       -3.899902
 21
     -214.000015
 31
        0.000000
  0
LINE
  8
0
 10
      155.000000
 20
        5.000000
 30
        0.000000
 11
      155.000000
 21
      -37.000000
 31
        0.000000
  0
LINE
  8
0
 10
      152.500000
 20
      -37.000000
 30
        0.000000
 11
      152.500000
 21
     -127.000000
 31
        0.000000
  0
LINE
  8
0
 10
      155.000000
 20
      -37.000000
 30
        0.000000
 11
      152.500000
 21
      -37.000000
 31
        0.000000
  0
LINE
  8
0
 10
      155.000000
 20
     -127.000000
 30
        0.000000
 11
      152.500000
 21
     -127.000000
 31
        0.000000
  0
LINE
  8
0
 10
      155.000000
 20
     -127.000000
 30
        0.000000
 11
      155.000000
 21
     -245.000015
 31
        0.000000
  0
LINE
  8
0
 10
       75.000000
 20
       -5.000000
 30
        0.000000
 11
      145.000000
 21
       -5.000000
 31
        0.000000
  0
LINE
  8
0
 10
      145.000000
 20
     -235.000015
 30
        0.000000
 11
       75.000000
 21
     -235.000015
 31
        0.000000
  0
LINE
  8
0
 10
      145.000000
 20
        5.000000
 30
        0.000000
 11
      155.000000
 21
        5.000000
 31
        0.000000
  0
LINE
  8
0
 10
      155.000000
 20
     -245.000015
 30
        0.000000
 11
      145.000000
 21
     -245.000015
 31
        0.000000
  0
LINE
  8
0
 10
      145.000000
 20
     -235.000015
 30
        0.000000
 11
      145.000000
 21
     -245.000015
 31
        0.000000
  0
LINE
  8
0
 10
      145.000000
 20
        5.000000
 30
        0.000000
 11
      145.000000
 21
       -5.000000
 31
        0.000000
  0
CIRCLE
  8
0
 10
       93.489990
 20
     -219.442520
 30
        0.000000
 40
        1.150146
  0
CIRCLE
  8
0
 10
      126.510010
 20
     -219.442520
 30
        0.000000
 40
        1.150146
  0
LINE
  8
0
 10
      145.000000
 20
     -243.500015
 30
        0.000000
 11
      145.000000
 21
     -236.500015
 31
        0.000000
  0
LINE
  8
0
 10
      158.400146
 20
     -238.399918
 30
        0.000000
 11
      155.000000
 21
     -238.399918
 31
        0.000000
  0
LINE
  8
0
 10
      158.400146
 20
     -241.599869
 30
        0.000000
 11
      155.000000
 21
     -241.599869
 31
        0.000000
  0
LINE
  8
0
 10
      158.000000
 20
     -238.000015
 30
        0.000000
 11
      155.000000
 21
     -238.000015
 31
        0.000000
  0
LINE
  8
0
 10
      158.000000
 20
     -242.000015
 30
        0.000000
 11
      155.000000
 21
     -242.000015
 31
        0.000000
  0
LINE
  8
0
 10
      160.000000
 20
     -240.000015
 30
        0.000000
 11
      158.000000
 21
     -238.000015
 31
        0.000000
  0
LINE
  8
0
 10
      160.000000
 20
     -240.000015
 30
        0.000000
 11
      158.000000
 21
     -242.000015
 31
        0.000000
  0
LINE
  8
0
 10
      158.000000
 20
     -238.000015
 30
        0.000000
 11
      158.000000
 21
     -242.000015
 31
        0.000000
  0
LINE
  8
0
 10
      145.000000
 20
     -236.500015
 30
        0.000000
 11
      144.020996
 21
     -236.500015
 31
        0.000000
  0
LINE
  8
0
 10
      145.000000
 20
     -243.500015
 30
        0.000000
 11
      144.020996
 21
     -243.500015
 31
        0.000000
  0
ARC
  8
0
 10
      151.400146
 20
     -240.000015
 30
        0.000000
 40
        9.000003
 50
      163.399371
 51
      196.601295
  0
ARC
  8
0
 10
      144.020996
 20
     -237.800064
 30
        0.000000
 40
        1.299805
 50
       90.000000
 51
      163.391912
  0
ARC
  8
0
 10
      144.020996
 20
     -242.199966
 30
        0.000000
 40
        1.299931
 50
      196.603918
 51
      270.000000
  0
LINE
  8
0
 10
       86.000000
 20
     -214.800003
 30
        0.000000
 11
       86.000000
 21
     -224.300003
 31
        0.000000
  0
LINE
  8
0
 10
      134.000000
 20
     -214.800003
 30
        0.000000
 11
      134.000000
 21
     -224.300003
 31
        0.000000
  0
LINE
  8
0
 10
      134.000000
 20
     -214.800003
 30
        0.000000
 11
       86.000000
 21
     -214.800003
 31
        0.000000
  0
LINE
  8
0
 10
      134.000000
 20
     -224.300003
 30
        0.000000
 11
       86.000000
 21
     -224.300003
 31
        0.000000
  0
LINE
  8
0
 10
      145.000000
 20
        3.500000
 30
        0.000000
 11
      144.020996
 21
        3.500000
 31
        0.000000
  0
ARC
  8
0
 10
      144.020996
 20
        2.199951
 30
        0.000000
 40
        1.299805
 50
       90.000000
 51
      163.391912
  0
ARC
  8
0
 10
      151.400146
 20
        0.000000
 30
        0.000000
 40
        9.000003
 50
      163.399371
 51
      196.601390
  0
ARC
  8
0
 10
      144.020996
 20
       -2.199951
 30
        0.000000
 40
        1.299931
 50
      196.603918
 51
      270.000000
  0
LINE
  8
0
 10
      145.000000
 20
       -3.500000
 30
        0.000000
 11
      144.020996
 21
       -3.500000
 31
        0.000000
  0
LINE
  8
0
 10
      160.000000
 20
        0.000000
 30
        0.000000
 11
      158.000000
 21
        2.000000
 31
        0.000000
  0
LINE
  8
0
 10
      160.000000
 20
        0.000000
 30
        0.000000
 11
      158.000000
 21
       -2.000000
 31
        0.000000
  0
LINE
  8
0
 10
      158.000000
 20
        2.000000
 30
        0.000000
 11
      158.000000
 21
       -2.000000
 31
        0.000000
  0
LINE
  8
0
 10
      158.400146
 20
        1.600098
 30
        0.000000
 11
      155.000000
 21
        1.600098
 31
        0.000000
  0
LINE
  8
0
 10
      158.000000
 20
        2.000000
 30
        0.000000
 11
      155.000000
 21
        2.000000
 31
        0.000000
  0
LINE
  8
0
 10
      158.400146
 20
       -1.599854
 30
        0.000000
 11
      155.000000
 21
       -1.599854
 31
        0.000000
  0
LINE
  8
0
 10
      158.000000
 20
       -2.000000
 30
        0.000000
 11
      155.000000
 21
       -2.000000
 31
        0.000000
  0
CIRCLE
  8
0
 10
        0.000000
 20
        0.000000
 30
        0.000000
 40
        3.500000
  0
LINE
  8
0
 10
        1.414063
 20
        1.414001
 30
        0.000000
 11
       -1.414307
 21
       -1.414368
 31
        0.000000
  0
LINE
  8
0
 10
       -2.474976
 20
        2.474731
 30
        0.000000
 11
        2.474731
 21
       -2.474976
 31
        0.000000
  0
CIRCLE
  8
0
 10
        0.000000
 20
     -240.000015
 30
        0.000000
 40
        3.500000
  0
LINE
  8
0
 10
        1.414063
 20
     -238.586014
 30
        0.000000
 11
       -1.414307
 21
     -241.414383
 31
        0.000000
  0
LINE
  8
0
 10
       -2.474976
 20
     -237.525284
 30
        0.000000
 11
        2.474731
 21
     -242.474991
 31
        0.000000
  0
LINE
  8
0
  6
CENTER
 62
  1
 10
       21.100037
 20
     -223.542358
 30
        0.000000
 11
       21.100037
 21
     -215.342407
 31
        0.000000
  0
LINE
  8
0
  6
CENTER
 62
  1
 10
       17.100037
 20
     -221.842438
 30
        0.000000
 11
       17.100037
 21
     -217.042435
 31
        0.000000
  0
LINE
  8
0
  6
CENTER
 62
  1
 10
       16.600037
 20
     -217.042435
 30
        0.000000
 11
       16.600037
 21
     -215.342407
 31
        0.000000
  0
LINE
  8
0
  6
CENTER
 62
  1
 10
       16.600037
 20
     -223.542358
 30
        0.000000
 11
       16.600037
 21
     -221.842438
 31
        0.000000
  0
LINE
  8
0
  6
CENTER
 62
  1
 10
       21.100037
 20
     -221.842438
 30
        0.000000
 11
       10.000000
 21
     -221.842438
 31
        0.000000
  0
LINE
  8
0
  6
CENTER
 62
  1
 10
       21.100037
 20
     -217.042435
 30
        0.000000
 11
       10.000000
 21
     -217.042435
 31
        0.000000
  0
LINE
  8
0
  6
CENTER
 62
  1
 10
       21.100037
 20
     -223.542358
 30
        0.000000
 11
       10.000000
 21
     -223.542358
 31
        0.000000
  0
LINE
  8
0
  6
CENTER
 62
  1
 10
       21.100037
 20
     -215.342407
 30
        0.000000
 11
       10.000000
 21
     -215.342407
 31
        0.000000
  0
LINE
  8
0
  6
CENTER
 62
  1
 10
       65.800049
 20
     -212.239990
 30
        0.000000
 11
       65.800049
 21
     -213.199951
 31
        0.000000
  0
LINE
  8
0
  6
CENTER
 62
  1
 10
       65.800049
 20
     -166.800049
 30
        0.000000
 11
       65.800049
 21
     -167.760010
 31
        0.000000
  0
LINE
  8
0
  6
CENTER
 62
  1
 10
       73.199951
 20
     -213.199951
 30
        0.000000
 11
       65.800049
 21
     -213.199951
 31
        0.000000
  0
LINE
  8
0
  6
CENTER
 62
  1
 10
       73.199951
 20
     -166.800049
 30
        0.000000
 11
       65.800049
 21
     -166.800049
 31
        0.000000
  0
ARC
  8
0
  6
CENTER
 62
  1
 10
       65.800049
 20
     -207.739990
 30
        0.000000
 40
        4.500000
 50
      180.000015
 51
      270.000000
  0
ARC
  8
0
  6
CENTER
 62
  1
 10
       65.800049
 20
     -172.260010
 30
        0.000000
 40
        4.500000
 50
       90.000000
 51
      180.000015
  0
LINE
  8
0
  6
CENTER
 62
  1
 10
       61.300049
 20
     -207.739990
 30
        0.000000
 11
       61.300049
 21
     -172.260010
 31
        0.000000
  0
LINE
  8
0
  6
CENTER
 62
  1
 10
       75.000000
 20
     -212.239990
 30
        0.000000
 11
       65.800049
 21
     -212.239990
 31
        0.000000
  0
LINE
  8
0
  6
CENTER
 62
  1
 10
       75.000000
 20
     -167.760010
 30
        0.000000
 11
       65.800049
 21
     -167.760010
 31
        0.000000
  0
LINE
  8
0
  6
CENTER
 62
  1
 10
       73.199951
 20
     -213.199951
 30
        0.000000
 11
       73.199951
 21
     -166.800049
 31
        0.000000
  0
LINE
  8
0
  6
CENTER
 62
  1
 10
       65.800049
 20
      -72.239990
 30
        0.000000
 11
       65.800049
 21
      -73.199951
 31
        0.000000
  0
LINE
  8
0
  6
CENTER
 62
  1
 10
       65.800049
 20
      -26.800049
 30
        0.000000
 11
       65.800049
 21
      -27.760010
 31
        0.000000
  0
LINE
  8
0
  6
CENTER
 62
  1
 10
       73.199951
 20
      -73.199951
 30
        0.000000
 11
       65.800049
 21
      -73.199951
 31
        0.000000
  0
LINE
  8
0
  6
CENTER
 62
  1
 10
       73.199951
 20
      -26.800049
 30
        0.000000
 11
       65.800049
 21
      -26.800049
 31
        0.000000
  0
ARC
  8
0
  6
CENTER
 62
  1
 10
       65.800049
 20
      -67.739990
 30
        0.000000
 40
        4.500000
 50
      180.000015
 51
      270.000000
  0
ARC
  8
0
  6
CENTER
 62
  1
 10
       65.800049
 20
      -32.260010
 30
        0.000000
 40
        4.500000
 50
       90.000000
 51
      180.000015
  0
LINE
  8
0
  6
CENTER
 62
  1
 10
       61.300049
 20
      -67.739990
 30
        0.000000
 11
       61.300049
 21
      -32.260010
 31
        0.000000
  0
LINE
  8
0
  6
CENTER
 62
  1
 10
       75.000000
 20
      -72.239990
 30
        0.000000
 11
       65.800049
 21
      -72.239990
 31
        0.000000
  0
LINE
  8
0
  6
CENTER
 62
  1
 10
       75.000000
 20
      -27.760010
 30
        0.000000
 11
       65.800049
 21
      -27.760010
 31
        0.000000
  0
LINE
  8
0
  6
CENTER
 62
  1
 10
       73.199951
 20
      -73.199951
 30
        0.000000
 11
       73.199951
 21
      -26.800049
 31
        0.000000
  0
LINE
  8
0
 10
       75.000000
 20
       -5.000000
 30
        0.000000
 11
       75.000000
 21
     -235.000015
 31
        0.000000
  0
LINE
  8
0
 10
       75.000000
 20
       25.000000
 30
        0.000000
 11
      155.000000
 21
       25.000000
 31
        0.000000
  0
LINE
  8
0
 10
       75.000000
 20
       43.500000
 30
        0.000000
 11
      155.000000
 21
       43.500000
 31
        0.000000
  0
LINE
  8
0
 10
      145.000000
 20
       37.750000
 30
        0.000000
 11
      144.020996
 21
       37.750000
 31
        0.000000
  0
ARC
  8
0
 10
      144.020996
 20
       36.449951
 30
        0.000000
 40
        1.299805
 50
       90.000000
 51
      163.391912
  0
ARC
  8
0
 10
      151.400146
 20
       34.250000
 30
        0.000000
 40
        9.000003
 50
      163.399371
 51
      196.601390
  0
ARC
  8
0
 10
      144.020996
 20
       32.050049
 30
        0.000000
 40
        1.299931
 50
      196.603918
 51
      270.000000
  0
LINE
  8
0
 10
      145.000000
 20
       30.750000
 30
        0.000000
 11
      144.020996
 21
       30.750000
 31
        0.000000
  0
LINE
  8
0
 10
      158.000000
 20
       36.250000
 30
        0.000000
 11
      158.000000
 21
       32.250000
 31
        0.000000
  0
LINE
  8
0
 10
      158.400146
 20
       35.850098
 30
        0.000000
 11
      155.000000
 21
       35.850098
 31
        0.000000
  0
LINE
  8
0
 10
      158.000000
 20
       36.250000
 30
        0.000000
 11
      155.000000
 21
       36.250000
 31
        0.000000
  0
LINE
  8
0
 10
      158.400146
 20
       32.650146
 30
        0.000000
 11
      155.000000
 21
       32.650146
 31
        0.000000
  0
LINE
  8
0
 10
      158.000000
 20
       32.250000
 30
        0.000000
 11
      155.000000
 21
       32.250000
 31
        0.000000
  0
LINE
  8
0
 10
      160.000000
 20
       34.250000
 30
        0.000000
 11
      158.000000
 21
       36.250000
 31
        0.000000
  0
LINE
  8
0
 10
      160.000000
 20
       34.250000
 30
        0.000000
 11
      158.000000
 21
       32.250000
 31
        0.000000
  0
LINE
  8
0
 10
       75.000000
 20
       43.500000
 30
        0.000000
 11
       75.000000
 21
       25.000000
 31
        0.000000
  0
LINE
  8
0
 10
      155.000000
 20
       43.500000
 30
        0.000000
 11
      155.000000
 21
       25.000000
 31
        0.000000
  0
LINE
  8
0
 10
      145.000000
 20
       43.500000
 30
        0.000000
 11
      145.000000
 21
       25.000000
 31
        0.000000
  0
LINE
  8
0
 10
      138.800000
 20
       39.000000
 30
        0.000000
 11
      138.800000
 21
       26.000000
 31
        0.000000
  0
LINE
  8
0
 10
      136.800000
 20
       26.000000
 30
        0.000000
 11
      138.800000
 21
       26.000000
 31
        0.000000
  0
LINE
  8
0
 10
      136.800000
 20
       39.000000
 30
        0.000000
 11
      136.800000
 21
       26.000000
 31
        0.000000
  0
LINE
  8
0
 10
      136.800000
 20
       39.000000
 30
        0.000000
 11
      138.800000
 21
       39.000000
 31
        0.000000
  0
LINE
  8
0
 10
      134.800000
 20
       39.000000
 30
        0.000000
 11
      134.800000
 21
       26.000000
 31
        0.000000
  0
LINE
  8
0
 10
      132.800000
 20
       26.000000
 30
        0.000000
 11
      134.800000
 21
       26.000000
 31
        0.000000
  0
LINE
  8
0
 10
      132.800000
 20
       39.000000
 30
        0.000000
 11
      132.800000
 21
       26.000000
 31
        0.000000
  0
LINE
  8
0
 10
      132.800000
 20
       39.000000
 30
        0.000000
 11
      134.800000
 21
       39.000000
 31
        0.000000
  0
LINE
  8
0
 10
      128.800000
 20
       39.000000
 30
        0.000000
 11
      130.800000
 21
       39.000000
 31
        0.000000
  0
LINE
  8
0
 10
      128.800000
 20
       39.000000
 30
        0.000000
 11
      128.800000
 21
       26.000000
 31
        0.000000
  0
LINE
  8
0
 10
      128.800000
 20
       26.000000
 30
        0.000000
 11
      130.800000
 21
       26.000000
 31
        0.000000
  0
LINE
  8
0
 10
      130.800000
 20
       39.000000
 30
        0.000000
 11
      130.800000
 21
       26.000000
 31
        0.000000
  0
LINE
  8
0
 10
      126.800000
 20
       39.000000
 30
        0.000000
 11
      126.800000
 21
       26.000000
 31
        0.000000
  0
LINE
  8
0
 10
      124.800000
 20
       26.000000
 30
        0.000000
 11
      126.800000
 21
       26.000000
 31
        0.000000
  0
LINE
  8
0
 10
      124.800000
 20
       39.000000
 30
        0.000000
 11
      124.800000
 21
       26.000000
 31
        0.000000
  0
LINE
  8
0
 10
      124.800000
 20
       39.000000
 30
        0.000000
 11
      126.800000
 21
       39.000000
 31
        0.000000
  0
LINE
  8
0
 10
      120.800000
 20
       39.000000
 30
        0.000000
 11
      122.800000
 21
       39.000000
 31
        0.000000
  0
LINE
  8
0
 10
      120.800000
 20
       39.000000
 30
        0.000000
 11
      120.800000
 21
       26.000000
 31
        0.000000
  0
LINE
  8
0
 10
      120.800000
 20
       26.000000
 30
        0.000000
 11
      122.800000
 21
       26.000000
 31
        0.000000
  0
LINE
  8
0
 10
      122.800000
 20
       39.000000
 30
        0.000000
 11
      122.800000
 21
       26.000000
 31
        0.000000
  0
LINE
  8
0
 10
      118.800000
 20
       39.000000
 30
        0.000000
 11
      118.800000
 21
       26.000000
 31
        0.000000
  0
LINE
  8
0
 10
      116.800000
 20
       26.000000
 30
        0.000000
 11
      118.800000
 21
       26.000000
 31
        0.000000
  0
LINE
  8
0
 10
      116.800000
 20
       39.000000
 30
        0.000000
 11
      116.800000
 21
       26.000000
 31
        0.000000
  0
LINE
  8
0
 10
      116.800000
 20
       39.000000
 30
        0.000000
 11
      118.800000
 21
       39.000000
 31
        0.000000
  0
LINE
  8
0
 10
      112.800000
 20
       39.000000
 30
        0.000000
 11
      114.800000
 21
       39.000000
 31
        0.000000
  0
LINE
  8
0
 10
      112.800000
 20
       39.000000
 30
        0.000000
 11
      112.800000
 21
       26.000000
 31
        0.000000
  0
LINE
  8
0
 10
      112.800000
 20
       26.000000
 30
        0.000000
 11
      114.800000
 21
       26.000000
 31
        0.000000
  0
LINE
  8
0
 10
      114.800000
 20
       39.000000
 30
        0.000000
 11
      114.800000
 21
       26.000000
 31
        0.000000
  0
LINE
  8
0
 10
      110.800000
 20
       39.000000
 30
        0.000000
 11
      110.800000
 21
       26.000000
 31
        0.000000
  0
LINE
  8
0
 10
      108.800000
 20
       26.000000
 30
        0.000000
 11
      110.800000
 21
       26.000000
 31
        0.000000
  0
LINE
  8
0
 10
      108.800000
 20
       39.000000
 30
        0.000000
 11
      108.800000
 21
       26.000000
 31
        0.000000
  0
LINE
  8
0
 10
      108.800000
 20
       39.000000
 30
        0.000000
 11
      110.800000
 21
       39.000000
 31
        0.000000
  0
LINE
  8
0
 10
      104.800000
 20
       39.000000
 30
        0.000000
 11
      106.800000
 21
       39.000000
 31
        0.000000
  0
LINE
  8
0
 10
      104.800000
 20
       39.000000
 30
        0.000000
 11
      104.800000
 21
       26.000000
 31
        0.000000
  0
LINE
  8
0
 10
      104.800000
 20
       26.000000
 30
        0.000000
 11
      106.800000
 21
       26.000000
 31
        0.000000
  0
LINE
  8
0
 10
      106.800000
 20
       39.000000
 30
        0.000000
 11
      106.800000
 21
       26.000000
 31
        0.000000
  0
LINE
  8
0
 10
      102.800000
 20
       39.000000
 30
        0.000000
 11
      102.800000
 21
       26.000000
 31
        0.000000
  0
LINE
  8
0
 10
      100.800000
 20
       26.000000
 30
        0.000000
 11
      102.800000
 21
       26.000000
 31
        0.000000
  0
LINE
  8
0
 10
      100.800000
 20
       39.000000
 30
        0.000000
 11
      100.800000
 21
       26.000000
 31
        0.000000
  0
LINE
  8
0
 10
      100.800000
 20
       39.000000
 30
        0.000000
 11
      102.800000
 21
       39.000000
 31
        0.000000
  0
LINE
  8
0
 10
       96.800000
 20
       39.000000
 30
        0.000000
 11
       98.800000
 21
       39.000000
 31
        0.000000
  0
LINE
  8
0
 10
       96.800000
 20
       39.000000
 30
        0.000000
 11
       96.800000
 21
       26.000000
 31
        0.000000
  0
LINE
  8
0
 10
       96.800000
 20
       26.000000
 30
        0.000000
 11
       98.800000
 21
       26.000000
 31
        0.000000
  0
LINE
  8
0
 10
       98.800000
 20
       39.000000
 30
        0.000000
 11
       98.800000
 21
       26.000000
 31
        0.000000
  0
LINE
  8
0
 10
       94.800000
 20
       39.000000
 30
        0.000000
 11
       94.800000
 21
       26.000000
 31
        0.000000
  0
LINE
  8
0
 10
       92.800000
 20
       26.000000
 30
        0.000000
 11
       94.800000
 21
       26.000000
 31
        0.000000
  0
ENDSEC
  0
EOF
