  0
SECTION
  2
HEADER
  9
$ACADVER
  1
AC1006
  9
$INSBASE
 10
0.0
 20
0.0
 30
0.0
  9
$EXTMIN
 10
     -143.830673
 20
     -143.830673
  9
$EXTMAX
 10
      178.500244
 20
      178.500244
  9
$LIMMIN
 10
     -143.830673
 20
     -143.830673
  9
$LIMMAX
 10
      178.500244
 20
      178.500244
  9
$VIEWCTR
 10
       17.334785
 20
       17.334785
  9
$ORTHOMODE
 70
     0
  9
$ANGBASE
 50
0.0
  9
$ANGDIR
 70
     0
  9
$SPLINETYPE
 70
     6
  9
$SPLINESEGS
 70
     8
9
$DIMASZ
 40
        6.000000
9
$DIMEXE
 40
        1.500000
9
$DIMEXO
 40
        2.500000
9
$DIMTXT
 40
        5.000000
9
$DIMGAP
 40
        1.500000
9
$DIMTAD
 70
1
9
$DIMTIH
 70
0
9
$DIMTOH
 70
0
  0
ENDSEC
  0
SECTION
  2
TABLES
  0
TABLE
  2
LTYPE
 70
     5
  0
LTYPE
  2
CONTINUOUS
 70
    64
  3
SOLID LINE
 72
    65
 73
     0
 40
0.0
  0
LTYPE
  2
DASHED
 70
    64
  3
-- -- -- -- -- --
 72
    65
 73
     2
 40
  0.75  
 49
  0.50  
 49
 -0.25  
  0
LTYPE
  2
DOT
 70
    64
  3
....................
 72
    65
 73
     2
 40
  0.25  
 49
  0.02  
 49
 -0.23  
  0
LTYPE
  2
CENTER
 70
    64
  3
-- . -- . -- . -- .
 72
    65
 73
    4
 40
  2.00  
 49
  1.25  
 49
 -0.25  
 49
  0.25  
 49
 -0.25  
  0
LTYPE
  2
PHANTOM
 70
    64
  3
-- .. -- .. -- ..
 72
    65
 73
    6
 40
  2.50  
 49
  1.25  
 49
 -0.25  
 49
  0.25  
 49
 -0.25  
 49
  0.25  
 49
 -0.25  
  0
ENDTAB
  0
TABLE
  2
LAYER
 70
     1
  0
LAYER
  2
0
 70
    64
 62
     3
  6
CONTINUOUS
  0
ENDTAB
  0
TABLE
  2
STYLE
 70
     2
  0
STYLE
  2
STANDARD
 70
    64
 40
0.0
 41
1.0
 50
0.0
 71
     0
 42
5.0
  3
ROMANS
  4
BIGFONT
  0
STYLE
  2
BIGFONT
 70
    64
 40
0.0
 41
1.0
 50
0.0
 71
     0
 42
5.0
  3
ROMANS
  4
BIGFONT
  0
ENDTAB
  0
TABLE
  2
VIEW
 70
     0
  0
ENDTAB
  0
TABLE
  2
UCS
 70
     0
  0
ENDTAB
  0
TABLE
  2
DWGMGR
 70
     0
  0
ENDTAB
  0
ENDSEC
  0
SECTION
  2
BLOCKS
  0
BLOCK
  8
0
  2
BLK0001
 70
    64
 10
        0.000000
 20
        0.000000
  0
TEXT
  8
0
 62
  2
 10
       38.499695
 20
       -6.000000
 30
        0.000000
 40
        3.340000
  1
２５０
 50
       90.000000
 41
        1.000000
 51
        0.000000
  7
BIGFONT
  0
LINE
  8
0
 62
  2
 10
       17.750000
 20
      125.000000
 30
        0.000000
 11
       39.499695
 21
      125.000000
 31
        0.000000
  0
LINE
  8
0
 62
  2
 10
       17.750000
 20
     -125.000000
 30
        0.000000
 11
       39.499695
 21
     -125.000000
 31
        0.000000
  0
LINE
  8
0
 62
  2
 10
       39.785095
 20
      122.000000
 30
        0.000000
 11
       38.999695
 21
      125.000000
 31
        0.000000
  0
LINE
  8
0
 62
  2
 10
       38.999695
 20
      125.000000
 30
        0.000000
 11
       38.214294
 21
      122.000000
 31
        0.000000
  0
LINE
  8
0
 62
  2
 10
       38.214294
 20
     -122.000000
 30
        0.000000
 11
       38.999695
 21
     -125.000000
 31
        0.000000
  0
LINE
  8
0
 62
  2
 10
       38.999695
 20
     -125.000000
 30
        0.000000
 11
       39.785091
 21
     -122.000000
 31
        0.000000
  0
LINE
  8
0
 62
  2
 10
       38.999695
 20
      125.000000
 30
        0.000000
 11
       38.999695
 21
     -125.000000
 31
        0.000000
  0
ENDBLK
  0
BLOCK
  8
0
  2
BLK0002
 70
    64
 10
        0.000000
 20
        0.000000
  0
TEXT
  8
0
 62
  2
 10
      116.499977
 20
     -142.545273
 30
        0.000000
 40
        3.340000
  1
１０５
 50
        0.000000
 41
        1.000000
 51
        0.000000
  7
BIGFONT
  0
LINE
  8
0
 62
  2
 10
       70.000000
 20
      -25.508652
 30
        0.000000
 11
       70.000000
 21
     -143.545273
 31
        0.000000
  0
LINE
  8
0
 62
  2
 10
      174.999954
 20
     -124.500000
 30
        0.000000
 11
      174.999954
 21
     -143.545273
 31
        0.000000
  0
LINE
  8
0
 62
  2
 10
       73.000000
 20
     -142.259872
 30
        0.000000
 11
       70.000000
 21
     -143.045273
 31
        0.000000
  0
LINE
  8
0
 62
  2
 10
       70.000000
 20
     -143.045273
 30
        0.000000
 11
       73.000000
 21
     -143.830673
 31
        0.000000
  0
LINE
  8
0
 62
  2
 10
      171.999954
 20
     -143.830673
 30
        0.000000
 11
      174.999954
 21
     -143.045273
 31
        0.000000
  0
LINE
  8
0
 62
  2
 10
      174.999954
 20
     -143.045273
 30
        0.000000
 11
      171.999954
 21
     -142.259872
 31
        0.000000
  0
LINE
  8
0
 62
  2
 10
       70.000000
 20
     -143.045273
 30
        0.000000
 11
      174.999954
 21
     -143.045273
 31
        0.000000
  0
ENDBLK
  0
BLOCK
  8
0
  2
BLK0003
 70
    64
 10
        0.000000
 20
        0.000000
  0
TEXT
  8
0
 62
  2
 10
       -8.000000
 20
     -142.545273
 30
        0.000000
 40
        3.340000
  1
３３．５
 50
        0.000000
 41
        1.000000
 51
        0.000000
  7
BIGFONT
  0
LINE
  8
0
 62
  2
 10
      -16.750000
 20
     -126.000000
 30
        0.000000
 11
      -16.750000
 21
     -143.545273
 31
        0.000000
  0
LINE
  8
0
 62
  2
 10
       16.750000
 20
     -126.000000
 30
        0.000000
 11
       16.750000
 21
     -143.545273
 31
        0.000000
  0
LINE
  8
0
 62
  2
 10
      -13.750000
 20
     -142.259872
 30
        0.000000
 11
      -16.750000
 21
     -143.045273
 31
        0.000000
  0
LINE
  8
0
 62
  2
 10
      -16.750000
 20
     -143.045273
 30
        0.000000
 11
      -13.750000
 21
     -143.830673
 31
        0.000000
  0
LINE
  8
0
 62
  2
 10
       13.750000
 20
     -143.830673
 30
        0.000000
 11
       16.750000
 21
     -143.045273
 31
        0.000000
  0
LINE
  8
0
 62
  2
 10
       16.750000
 20
     -143.045273
 30
        0.000000
 11
       13.750000
 21
     -142.259872
 31
        0.000000
  0
LINE
  8
0
 62
  2
 10
      -16.750000
 20
     -143.045273
 30
        0.000000
 11
       16.750000
 21
     -143.045273
 31
        0.000000
  0
ENDBLK
  0
ENDSEC
  0
SECTION
  2
ENTITIES
  0
LINE
  8
0
 10
      116.999956
 20
      145.000244
 30
        0.000000
 11
      116.999956
 21
      178.500244
 31
        0.000000
  0
LINE
  8
0
 10
      113.999712
 20
      145.000244
 30
        0.000000
 11
      113.999712
 21
      178.500244
 31
        0.000000
  0
LINE
  8
0
 10
      110.999712
 20
      145.000244
 30
        0.000000
 11
      110.999712
 21
      178.500244
 31
        0.000000
  0
LINE
  8
0
 10
      107.999712
 20
      145.000244
 30
        0.000000
 11
      107.999712
 21
      178.500244
 31
        0.000000
  0
LINE
  8
0
 10
      104.999956
 20
      178.500244
 30
        0.000000
 11
       69.999956
 21
      177.889317
 31
        0.000000
  0
LINE
  8
0
 10
      104.999956
 20
      145.000244
 30
        0.000000
 11
       69.999956
 21
      145.611171
 31
        0.000000
  0
LINE
  8
0
 10
       75.000001
 20
      145.523895
 30
        0.000000
 11
       75.000001
 21
      177.976593
 31
        0.000000
  0
LINE
  8
0
 10
       69.999956
 20
      145.611171
 30
        0.000000
 11
       69.999956
 21
      177.889317
 31
        0.000000
  0
LINE
  8
0
 10
      174.999956
 20
      145.000244
 30
        0.000000
 11
      174.999956
 21
      178.500244
 31
        0.000000
  0
LINE
  8
0
 10
      104.999956
 20
      145.000244
 30
        0.000000
 11
      104.999956
 21
      178.500244
 31
        0.000000
  0
TEXT
  8
0
 62
  2
 10
      -11.080409
 20
      167.001426
 30
        0.000000
 40
        4.175000
  1
ＪＷ１ＰＵ
 50
        0.000000
 41
        1.000000
 51
        0.000000
  7
BIGFONT
  0
TEXT
  8
0
 62
  2
 10
      -11.080409
 20
      160.347086
 30
        0.000000
 40
        4.175000
  1
ＪＷ２ＰＵ
 50
        0.000000
 41
        1.000000
 51
        0.000000
  7
BIGFONT
  0
INSERT
  8
0
 62
  5
  2
BLK0001
 10
        0.000000
 20
        0.000000
  0
INSERT
  8
0
 62
  5
  2
BLK0002
 10
        0.000000
 20
        0.000000
  0
INSERT
  8
0
 62
  5
  2
BLK0003
 10
        0.000000
 20
        0.000000
  0
LINE
  8
0
 10
        2.949951
 20
      -31.000000
 30
        0.000000
 11
        2.949951
 21
     -125.000000
 31
        0.000000
  0
LINE
  8
0
 10
       16.750000
 20
      -31.000000
 30
        0.000000
 11
        2.949951
 21
      -31.000000
 31
        0.000000
  0
LINE
  8
0
 10
       16.750000
 20
      -41.000000
 30
        0.000000
 11
        2.949951
 21
      -41.000000
 31
        0.000000
  0
LINE
  8
0
 10
       16.750000
 20
      -42.800049
 30
        0.000000
 11
        2.949951
 21
      -42.800049
 31
        0.000000
  0
LINE
  8
0
 10
       16.750000
 20
     -113.199951
 30
        0.000000
 11
        2.949951
 21
     -113.199951
 31
        0.000000
  0
LINE
  8
0
 10
       16.750000
 20
     -115.000000
 30
        0.000000
 11
        2.949951
 21
     -115.000000
 31
        0.000000
  0
CIRCLE
  8
0
 10
        9.949951
 20
      -36.000000
 30
        0.000000
 40
        2.750000
  0
CIRCLE
  8
0
 10
        9.949951
 20
     -120.000000
 30
        0.000000
 40
        2.750000
  0
CIRCLE
  8
0
 10
        9.949951
 20
     -120.000000
 30
        0.000000
 40
        4.000000
  0
CIRCLE
  8
0
 10
        9.949951
 20
      -36.000000
 30
        0.000000
 40
        4.000000
  0
CIRCLE
  8
0
 10
        3.250000
 20
      111.000000
 30
        0.000000
 40
        1.500000
  0
LINE
  8
0
 10
      -14.750000
 20
      115.000000
 30
        0.000000
 11
       14.750000
 21
      115.000000
 31
        0.000000
  0
LINE
  8
0
 10
      -14.750000
 20
      122.000000
 30
        0.000000
 11
       14.750000
 21
      122.000000
 31
        0.000000
  0
LINE
  8
0
 10
       14.750000
 20
      122.000000
 30
        0.000000
 11
       14.750000
 21
      115.000000
 31
        0.000000
  0
LINE
  8
0
 10
      -14.750000
 20
      122.000000
 30
        0.000000
 11
      -14.750000
 21
      115.000000
 31
        0.000000
  0
LINE
  8
0
 10
       16.750000
 20
      -51.000000
 30
        0.000000
 11
        2.949951
 21
      -51.000000
 31
        0.000000
  0
LINE
  8
0
 10
       16.750000
 20
      -60.000000
 30
        0.000000
 11
        2.949951
 21
      -60.000000
 31
        0.000000
  0
LINE
  8
0
 10
       16.750000
 20
      -69.000000
 30
        0.000000
 11
        2.949951
 21
      -69.000000
 31
        0.000000
  0
LINE
  8
0
 10
       16.750000
 20
      -78.000000
 30
        0.000000
 11
        2.949951
 21
      -78.000000
 31
        0.000000
  0
LINE
  8
0
 10
       16.750000
 20
      -87.000000
 30
        0.000000
 11
        2.949951
 21
      -87.000000
 31
        0.000000
  0
LINE
  8
0
 10
       16.750000
 20
      -96.000000
 30
        0.000000
 11
        2.949951
 21
      -96.000000
 31
        0.000000
  0
LINE
  8
0
 10
       16.750000
 20
     -105.000000
 30
        0.000000
 11
        2.949951
 21
     -105.000000
 31
        0.000000
  0
LINE
  8
0
 10
      -16.750000
 20
      -20.000000
 30
        0.000000
 11
       16.750000
 21
      -20.000000
 31
        0.000000
  0
LINE
  8
0
 10
      -16.750000
 20
      -25.000000
 30
        0.000000
 11
       16.750000
 21
      -25.000000
 31
        0.000000
  0
LINE
  8
0
 10
      -16.750000
 20
      125.000000
 30
        0.000000
 11
       16.750000
 21
      125.000000
 31
        0.000000
  0
LINE
  8
0
 10
      -16.750000
 20
     -125.000000
 30
        0.000000
 11
       16.750000
 21
     -125.000000
 31
        0.000000
  0
LINE
  8
0
 10
      -16.750000
 20
      125.000000
 30
        0.000000
 11
      -16.750000
 21
     -125.000000
 31
        0.000000
  0
LINE
  8
0
 10
      -16.750000
 20
       75.000000
 30
        0.000000
 11
       16.750000
 21
       75.000000
 31
        0.000000
  0
LINE
  8
0
 10
      -16.750000
 20
       70.000000
 30
        0.000000
 11
       16.750000
 21
       70.000000
 31
        0.000000
  0
LINE
  8
0
 10
      -15.250000
 20
      -33.000000
 30
        0.000000
 11
      -15.250000
 21
     -123.000000
 31
        0.000000
  0
LINE
  8
0
 10
      -15.250000
 20
     -123.000000
 30
        0.000000
 11
        2.949951
 21
     -123.000000
 31
        0.000000
  0
LINE
  8
0
 10
        2.949951
 20
      -33.000000
 30
        0.000000
 11
      -15.250000
 21
      -33.000000
 31
        0.000000
  0
LINE
  8
0
 10
       16.750000
 20
      125.000000
 30
        0.000000
 11
       16.750000
 21
     -125.000000
 31
        0.000000
  0
LINE
  8
0
  6
CENTER
 10
        0.000000
 20
      135.000000
 30
        0.000000
 11
        0.000000
 21
     -140.000000
 31
        0.000000
  0
LINE
  8
0
  6
CENTER
 10
       30.000000
 20
        0.000000
 30
        0.000000
 11
      -30.000000
 21
        0.000000
 31
        0.000000
  0
LINE
  8
0
 10
      111.000000
 20
       56.500244
 30
        0.000000
 11
      111.000000
 21
       43.500244
 31
        0.000000
  0
LINE
  8
0
 10
      108.000000
 20
       56.500244
 30
        0.000000
 11
      108.000000
 21
       43.500244
 31
        0.000000
  0
LINE
  8
0
 10
      111.000000
 20
       56.500244
 30
        0.000000
 11
      108.000000
 21
       56.500244
 31
        0.000000
  0
LINE
  8
0
 10
      111.000000
 20
       43.500244
 30
        0.000000
 11
      108.000000
 21
       43.500244
 31
        0.000000
  0
LINE
  8
0
 10
      111.000000
 20
      -56.500000
 30
        0.000000
 11
      108.000000
 21
      -56.500000
 31
        0.000000
  0
LINE
  8
0
 10
      111.000000
 20
      -43.500000
 30
        0.000000
 11
      108.000000
 21
      -43.500000
 31
        0.000000
  0
LINE
  8
0
 10
      108.000000
 20
      -43.500000
 30
        0.000000
 11
      108.000000
 21
      -56.500000
 31
        0.000000
  0
LINE
  8
0
 10
      111.000000
 20
      -43.500000
 30
        0.000000
 11
      111.000000
 21
      -56.500000
 31
        0.000000
  0
LINE
  8
0
 10
       76.500000
 20
     -121.000000
 30
        0.000000
 11
       80.500000
 21
     -125.000000
 31
        0.000000
  0
LINE
  8
0
 10
       80.500000
 20
     -125.000000
 30
        0.000000
 11
       85.000000
 21
     -125.000000
 31
        0.000000
  0
LINE
  8
0
 10
       76.500000
 20
     -121.000000
 30
        0.000000
 11
       76.500000
 21
     -116.050049
 31
        0.000000
  0
LINE
  8
0
 10
       80.500000
 20
      -31.000000
 30
        0.000000
 11
       76.500000
 21
      -35.000000
 31
        0.000000
  0
LINE
  8
0
 10
       76.500000
 20
      -39.949951
 30
        0.000000
 11
       76.500000
 21
      -35.000000
 31
        0.000000
  0
LINE
  8
0
 10
       80.500000
 20
      -31.000000
 30
        0.000000
 11
       85.000000
 21
      -31.000000
 31
        0.000000
  0
LINE
  8
0
 10
       70.000000
 20
      -39.949951
 30
        0.000000
 11
       76.500000
 21
      -39.949951
 31
        0.000000
  0
LINE
  8
0
 10
       70.000000
 20
     -116.050049
 30
        0.000000
 11
       70.000000
 21
      -39.949951
 31
        0.000000
  0
LINE
  8
0
 10
       70.000000
 20
     -116.050049
 30
        0.000000
 11
       76.500000
 21
     -116.050049
 31
        0.000000
  0
ARC
  8
0
 10
       85.500000
 20
     -124.159550
 30
        0.000000
 40
        0.500000
 50
      180.000010
 51
      269.000006
  0
LINE
  8
0
 10
      105.000000
 20
     -125.000000
 30
        0.000000
 11
       85.491274
 21
     -124.659474
 31
        0.000000
  0
LINE
  8
0
 10
       85.000000
 20
      -25.261826
 30
        0.000000
 11
       85.000000
 21
     -124.159550
 31
        0.000000
  0
ARC
  8
0
 10
       70.500000
 20
      -24.508651
 30
        0.000000
 40
        0.500000
 50
      179.999990
 51
      269.000006
  0
LINE
  8
0
 10
       70.491274
 20
      -25.008575
 30
        0.000000
 11
       85.000000
 21
      -25.261826
 31
        0.000000
  0
LINE
  8
0
 10
       70.491273
 20
      124.397823
 30
        0.000000
 11
       75.491211
 21
      124.485107
 31
        0.000000
  0
LINE
  8
0
 10
       70.000000
 20
      123.897899
 30
        0.000000
 11
       70.000000
 21
       75.000244
 31
        0.000000
  0
ARC
  8
0
 10
       70.500000
 20
      123.897899
 30
        0.000000
 40
        0.500000
 50
       91.000109
 51
      179.999990
  0
ARC
  8
0
 10
       75.500000
 20
      123.985107
 30
        0.000000
 40
        0.500000
 50
       91.007204
 51
      180.000015
  0
LINE
  8
0
 10
       75.000000
 20
       75.000244
 30
        0.000000
 11
       75.000000
 21
      123.985107
 31
        0.000000
  0
LINE
  8
0
 10
      105.000000
 20
      125.000244
 30
        0.000000
 11
       75.491211
 21
      124.485107
 31
        0.000000
  0
LINE
  8
0
 10
       70.000000
 20
       75.000244
 30
        0.000000
 11
       75.000000
 21
       75.000244
 31
        0.000000
  0
LINE
  8
0
 10
      105.000000
 20
      125.000244
 30
        0.000000
 11
      105.000000
 21
     -125.000000
 31
        0.000000
  0
LINE
  8
0
 10
      114.499268
 20
       12.500000
 30
        0.000000
 11
      164.499268
 21
       12.500000
 31
        0.000000
  0
LINE
  8
0
 10
      164.499268
 20
       12.500000
 30
        0.000000
 11
      164.499268
 21
      -12.500000
 31
        0.000000
  0
LINE
  8
0
 10
      164.499268
 20
      -12.500000
 30
        0.000000
 11
      114.499268
 21
      -12.500000
 31
        0.000000
  0
LINE
  8
0
 10
      114.499268
 20
      -12.500000
 30
        0.000000
 11
      114.499268
 21
       12.500000
 31
        0.000000
  0
LINE
  8
0
 10
       70.000000
 20
       70.000000
 30
        0.000000
 11
       70.000000
 21
      -24.508651
 31
        0.000000
  0
LINE
  8
0
 10
       70.000000
 20
       70.000000
 30
        0.000000
 11
       72.000000
 21
       70.000000
 31
        0.000000
  0
LINE
  8
0
 10
       70.000000
 20
      -20.000000
 30
        0.000000
 11
       72.000000
 21
      -20.000000
 31
        0.000000
  0
LINE
  8
0
 10
       72.000000
 20
       75.000244
 30
        0.000000
 11
       72.000000
 21
      -20.000000
 31
        0.000000
  0
LINE
  8
0
 10
      162.000200
 20
      123.500244
 30
        0.000000
 11
      162.000200
 21
      125.000244
 31
        0.000000
  0
LINE
  8
0
 10
      172.499956
 20
      125.000244
 30
        0.000000
 11
      172.499956
 21
      123.500244
 31
        0.000000
  0
LINE
  8
0
 10
      165.000200
 20
      125.000244
 30
        0.000000
 11
      165.000200
 21
      123.500244
 31
        0.000000
  0
LINE
  8
0
 10
      174.999956
 20
      123.500244
 30
        0.000000
 11
      162.000200
 21
      123.500244
 31
        0.000000
  0
LINE
  8
0
 10
      172.499956
 20
       81.500244
 30
        0.000000
 11
      172.499956
 21
       -5.500000
 31
        0.000000
  0
LINE
  8
0
 10
      174.999956
 20
       81.500244
 30
        0.000000
 11
      172.499956
 21
       81.500244
 31
        0.000000
  0
LINE
  8
0
 10
      172.499956
 20
      125.000244
 30
        0.000000
 11
      165.000200
 21
      125.000244
 31
        0.000000
  0
LINE
  8
0
 10
      174.999956
 20
      123.500244
 30
        0.000000
 11
      174.999956
 21
       81.500244
 31
        0.000000
  0
LINE
  8
0
 10
      162.000200
 20
      125.000244
 30
        0.000000
 11
      105.000000
 21
      125.000244
 31
        0.000000
  0
LINE
  8
0
 10
      172.499956
 20
       -5.500000
 30
        0.000000
 11
      174.999956
 21
       -5.500000
 31
        0.000000
  0
LINE
  8
0
 10
      174.999956
 20
       -5.500000
 30
        0.000000
 11
      174.999956
 21
     -123.500000
 31
        0.000000
  0
LINE
  8
0
 10
      162.000200
 20
     -123.500000
 30
        0.000000
 11
      162.000200
 21
     -125.000000
 31
        0.000000
  0
LINE
  8
0
 10
      172.499956
 20
     -123.500000
 30
        0.000000
 11
      172.499956
 21
     -125.000000
 31
        0.000000
  0
LINE
  8
0
 10
      172.499956
 20
     -125.000000
 30
        0.000000
 11
      165.000200
 21
     -125.000000
 31
        0.000000
  0
LINE
  8
0
 10
      165.000200
 20
     -123.500000
 30
        0.000000
 11
      165.000200
 21
     -125.000000
 31
        0.000000
  0
LINE
  8
0
 10
      174.999956
 20
     -123.500000
 30
        0.000000
 11
      162.000200
 21
     -123.500000
 31
        0.000000
  0
LINE
  8
0
 10
      162.000200
 20
     -125.000000
 30
        0.000000
 11
      105.000000
 21
     -125.000000
 31
        0.000000
  0
LINE
  8
0
 10
      174.999956
 20
      145.000244
 30
        0.000000
 11
      104.999956
 21
      145.000244
 31
        0.000000
  0
LINE
  8
0
 10
      174.999956
 20
      178.500244
 30
        0.000000
 11
      104.999956
 21
      178.500244
 31
        0.000000
  0
LINE
  8
0
 10
      164.999956
 20
      145.000244
 30
        0.000000
 11
      164.999956
 21
      178.500244
 31
        0.000000
  0
LINE
  8
0
 10
      172.499956
 20
      158.000244
 30
        0.000000
 11
      172.499956
 21
      165.500244
 31
        0.000000
  0
LINE
  8
0
 10
      172.499956
 20
      165.500244
 30
        0.000000
 11
      164.999956
 21
      165.500244
 31
        0.000000
  0
LINE
  8
0
 10
      172.499956
 20
      158.000244
 30
        0.000000
 11
      164.999956
 21
      158.000244
 31
        0.000000
  0
LINE
  8
0
 10
      161.999956
 20
      145.000244
 30
        0.000000
 11
      161.999956
 21
      178.500244
 31
        0.000000
  0
LINE
  8
0
 10
      158.999956
 20
      145.000244
 30
        0.000000
 11
      158.999956
 21
      178.500244
 31
        0.000000
  0
LINE
  8
0
 10
      155.999956
 20
      145.000244
 30
        0.000000
 11
      155.999956
 21
      178.500244
 31
        0.000000
  0
LINE
  8
0
 10
      152.999956
 20
      145.000244
 30
        0.000000
 11
      152.999956
 21
      178.500244
 31
        0.000000
  0
LINE
  8
0
 10
      149.999956
 20
      145.000244
 30
        0.000000
 11
      149.999956
 21
      178.500244
 31
        0.000000
  0
LINE
  8
0
 10
      146.999956
 20
      145.000244
 30
        0.000000
 11
      146.999956
 21
      178.500244
 31
        0.000000
  0
LINE
  8
0
 10
      143.999956
 20
      145.000244
 30
        0.000000
 11
      143.999956
 21
      178.500244
 31
        0.000000
  0
LINE
  8
0
 10
      140.999956
 20
      145.000244
 30
        0.000000
 11
      140.999956
 21
      178.500244
 31
        0.000000
  0
LINE
  8
0
 10
      137.999956
 20
      145.000244
 30
        0.000000
 11
      137.999956
 21
      178.500244
 31
        0.000000
  0
LINE
  8
0
 10
      134.999956
 20
      145.000244
 30
        0.000000
 11
      134.999956
 21
      178.500244
 31
        0.000000
  0
LINE
  8
0
 10
      131.999956
 20
      145.000244
 30
        0.000000
 11
      131.999956
 21
      178.500244
 31
        0.000000
  0
LINE
  8
0
 10
      128.999956
 20
      145.000244
 30
        0.000000
 11
      128.999956
 21
      178.500244
 31
        0.000000
  0
LINE
  8
0
 10
      125.999956
 20
      145.000244
 30
        0.000000
 11
      125.999956
 21
      178.500244
 31
        0.000000
  0
LINE
  8
0
 10
      122.999956
 20
      145.000244
 30
        0.000000
 11
      122.999956
 21
      178.500244
 31
        0.000000
  0
LINE
  8
0
 10
      119.999956
 20
      145.000244
 30
        0.000000
 11
      119.999956
 21
      178.500244
 31
        0.000000
  0
ENDSEC
  0
EOF
