  0
SECTION
  2
HEADER
  9
$ACADVER
  1
AC1006
  9
$INSBASE
 10
0.0
 20
0.0
 30
0.0
  9
$EXTMIN
 10
     -154.436096
 20
     -154.436096
  9
$EXTMAX
 10
      178.500244
 20
      178.500244
  9
$LIMMIN
 10
     -154.436096
 20
     -154.436096
  9
$LIMMAX
 10
      178.500244
 20
      178.500244
  9
$VIEWCTR
 10
       12.032074
 20
       12.032074
  9
$ORTHOMODE
 70
     0
  9
$ANGBASE
 50
0.0
  9
$ANGDIR
 70
     0
  9
$SPLINETYPE
 70
     6
  9
$SPLINESEGS
 70
     8
9
$DIMASZ
 40
        6.000000
9
$DIMEXE
 40
        1.500000
9
$DIMEXO
 40
        2.500000
9
$DIMTXT
 40
        5.000000
9
$DIMGAP
 40
        1.500000
9
$DIMTAD
 70
1
9
$DIMTIH
 70
0
9
$DIMTOH
 70
0
  0
ENDSEC
  0
SECTION
  2
TABLES
  0
TABLE
  2
LTYPE
 70
     5
  0
LTYPE
  2
CONTINUOUS
 70
    64
  3
SOLID LINE
 72
    65
 73
     0
 40
0.0
  0
LTYPE
  2
DASHED
 70
    64
  3
-- -- -- -- -- --
 72
    65
 73
     2
 40
  0.75  
 49
  0.50  
 49
 -0.25  
  0
LTYPE
  2
DOT
 70
    64
  3
....................
 72
    65
 73
     2
 40
  0.25  
 49
  0.02  
 49
 -0.23  
  0
LTYPE
  2
CENTER
 70
    64
  3
-- . -- . -- . -- .
 72
    65
 73
    4
 40
  2.00  
 49
  1.25  
 49
 -0.25  
 49
  0.25  
 49
 -0.25  
  0
LTYPE
  2
PHANTOM
 70
    64
  3
-- .. -- .. -- ..
 72
    65
 73
    6
 40
  2.50  
 49
  1.25  
 49
 -0.25  
 49
  0.25  
 49
 -0.25  
 49
  0.25  
 49
 -0.25  
  0
ENDTAB
  0
TABLE
  2
LAYER
 70
     1
  0
LAYER
  2
0
 70
    64
 62
     3
  6
CONTINUOUS
  0
ENDTAB
  0
TABLE
  2
STYLE
 70
     2
  0
STYLE
  2
STANDARD
 70
    64
 40
0.0
 41
1.0
 50
0.0
 71
     0
 42
5.0
  3
ROMANS
  4
BIGFONT
  0
STYLE
  2
BIGFONT
 70
    64
 40
0.0
 41
1.0
 50
0.0
 71
     0
 42
5.0
  3
ROMANS
  4
BIGFONT
  0
ENDTAB
  0
TABLE
  2
VIEW
 70
     0
  0
ENDTAB
  0
TABLE
  2
UCS
 70
     0
  0
ENDTAB
  0
TABLE
  2
DWGMGR
 70
     0
  0
ENDTAB
  0
ENDSEC
  0
SECTION
  2
BLOCKS
  0
BLOCK
  8
0
  2
BLK0001
 70
    64
 10
        0.000000
 20
        0.000000
  0
TEXT
  8
0
 62
  2
 10
      114.694839
 20
     -142.545273
 30
        0.000000
 40
        3.340000
  1
１０５
 50
        0.000000
 41
        1.000000
 51
        0.000000
  7
BIGFONT
  0
LINE
  8
0
 62
  2
 10
      174.999954
 20
     -124.500000
 30
        0.000000
 11
      174.999954
 21
     -143.945267
 31
        0.000000
  0
LINE
  8
0
 62
  2
 10
       70.000000
 20
     -125.388916
 30
        0.000000
 11
       70.000000
 21
     -143.945267
 31
        0.000000
  0
LINE
  8
0
 62
  2
 10
      171.999954
 20
     -144.030670
 30
        0.000000
 11
      174.999954
 21
     -143.245270
 31
        0.000000
  0
LINE
  8
0
 62
  2
 10
      174.999954
 20
     -143.245270
 30
        0.000000
 11
      171.999954
 21
     -142.459869
 31
        0.000000
  0
LINE
  8
0
 62
  2
 10
       73.000000
 20
     -142.459869
 30
        0.000000
 11
       70.000000
 21
     -143.245270
 31
        0.000000
  0
LINE
  8
0
 62
  2
 10
       70.000000
 20
     -143.245270
 30
        0.000000
 11
       73.000000
 21
     -144.030670
 31
        0.000000
  0
LINE
  8
0
 62
  2
 10
      174.999954
 20
     -143.245270
 30
        0.000000
 11
       70.000000
 21
     -143.245270
 31
        0.000000
  0
ENDBLK
  0
BLOCK
  8
0
  2
BLK0002
 70
    64
 10
        0.000000
 20
        0.000000
  0
TEXT
  8
0
 62
  2
 10
       38.499695
 20
       -6.000000
 30
        0.000000
 40
        3.340000
  1
２５０
 50
       90.000000
 41
        1.000000
 51
        0.000000
  7
BIGFONT
  0
LINE
  8
0
 62
  2
 10
       17.750000
 20
      125.000000
 30
        0.000000
 11
       39.899696
 21
      125.000000
 31
        0.000000
  0
LINE
  8
0
 62
  2
 10
       17.750000
 20
     -125.000000
 30
        0.000000
 11
       39.899696
 21
     -125.000000
 31
        0.000000
  0
LINE
  8
0
 62
  2
 10
       39.985096
 20
      122.000000
 30
        0.000000
 11
       39.199696
 21
      125.000000
 31
        0.000000
  0
LINE
  8
0
 62
  2
 10
       39.199696
 20
      125.000000
 30
        0.000000
 11
       38.414295
 21
      122.000000
 31
        0.000000
  0
LINE
  8
0
 62
  2
 10
       38.414295
 20
     -122.000000
 30
        0.000000
 11
       39.199696
 21
     -125.000000
 31
        0.000000
  0
LINE
  8
0
 62
  2
 10
       39.199696
 20
     -125.000000
 30
        0.000000
 11
       39.985092
 21
     -122.000000
 31
        0.000000
  0
LINE
  8
0
 62
  2
 10
       39.199696
 20
      125.000000
 30
        0.000000
 11
       39.199696
 21
     -125.000000
 31
        0.000000
  0
ENDBLK
  0
BLOCK
  8
0
  2
BLK0003
 70
    64
 10
        0.000000
 20
        0.000000
  0
TEXT
  8
0
 62
  2
 10
       -8.000000
 20
     -142.545273
 30
        0.000000
 40
        3.340000
  1
３３．５
 50
        0.000000
 41
        1.000000
 51
        0.000000
  7
BIGFONT
  0
LINE
  8
0
 62
  2
 10
      -16.750000
 20
     -126.000000
 30
        0.000000
 11
      -16.750000
 21
     -143.945267
 31
        0.000000
  0
LINE
  8
0
 62
  2
 10
       16.750000
 20
     -126.000000
 30
        0.000000
 11
       16.750000
 21
     -143.945267
 31
        0.000000
  0
LINE
  8
0
 62
  2
 10
      -13.750000
 20
     -142.459869
 30
        0.000000
 11
      -16.750000
 21
     -143.245270
 31
        0.000000
  0
LINE
  8
0
 62
  2
 10
      -16.750000
 20
     -143.245270
 30
        0.000000
 11
      -13.750000
 21
     -144.030670
 31
        0.000000
  0
LINE
  8
0
 62
  2
 10
       13.750000
 20
     -144.030670
 30
        0.000000
 11
       16.750000
 21
     -143.245270
 31
        0.000000
  0
LINE
  8
0
 62
  2
 10
       16.750000
 20
     -143.245270
 30
        0.000000
 11
       13.750000
 21
     -142.459869
 31
        0.000000
  0
LINE
  8
0
 62
  2
 10
      -16.750000
 20
     -143.245270
 30
        0.000000
 11
       16.750000
 21
     -143.245270
 31
        0.000000
  0
ENDBLK
  0
BLOCK
  8
0
  2
BLK0004
 70
    64
 10
        0.000000
 20
        0.000000
  0
TEXT
  8
0
 62
  2
 10
      105.478752
 20
     -152.819794
 30
        0.000000
 40
        3.340000
  1
１１１．５
 50
        0.000000
 41
        1.000000
 51
        0.000000
  7
BIGFONT
  0
LINE
  8
0
 62
  2
 10
       63.499565
 20
      -62.295349
 30
        0.000000
 11
       63.499565
 21
     -154.219788
 31
        0.000000
  0
LINE
  8
0
 62
  2
 10
      174.999954
 20
     -124.500000
 30
        0.000000
 11
      174.999954
 21
     -154.219788
 31
        0.000000
  0
LINE
  8
0
 62
  2
 10
       66.999565
 20
     -152.603485
 30
        0.000000
 11
       63.499565
 21
     -153.519791
 31
        0.000000
  0
LINE
  8
0
 62
  2
 10
       63.499565
 20
     -153.519791
 30
        0.000000
 11
       66.999565
 21
     -154.436096
 31
        0.000000
  0
LINE
  8
0
 62
  2
 10
      171.499954
 20
     -154.436096
 30
        0.000000
 11
      174.999954
 21
     -153.519791
 31
        0.000000
  0
LINE
  8
0
 62
  2
 10
      174.999954
 20
     -153.519791
 30
        0.000000
 11
      171.499954
 21
     -152.603485
 31
        0.000000
  0
LINE
  8
0
 62
  2
 10
       63.499565
 20
     -153.519791
 30
        0.000000
 11
      174.999954
 21
     -153.519791
 31
        0.000000
  0
ENDBLK
  0
ENDSEC
  0
SECTION
  2
ENTITIES
  0
LINE
  8
0
 10
        5.250000
 20
      -93.100105
 30
        0.000000
 11
        6.850000
 21
      -93.100105
 31
        0.000000
  0
LINE
  8
0
 10
        5.250000
 20
      -86.900105
 30
        0.000000
 11
        6.850000
 21
      -86.900105
 31
        0.000000
  0
LINE
  8
0
 10
        6.850000
 20
      -93.100105
 30
        0.000000
 11
        6.850000
 21
      -92.000105
 31
        0.000000
  0
LINE
  8
0
 10
        6.850000
 20
      -88.000105
 30
        0.000000
 11
        6.850000
 21
      -86.900105
 31
        0.000000
  0
LINE
  8
0
 10
        6.850000
 20
      -88.000105
 30
        0.000000
 11
        8.250000
 21
      -88.000105
 31
        0.000000
  0
LINE
  8
0
 10
        6.850000
 20
      -92.000105
 30
        0.000000
 11
        8.250000
 21
      -92.000105
 31
        0.000000
  0
LINE
  8
0
 10
        5.250000
 20
      -86.900105
 30
        0.000000
 11
        5.250000
 21
      -84.000105
 31
        0.000000
  0
LINE
  8
0
 10
       -1.650000
 20
      -84.000105
 30
        0.000000
 11
        5.250000
 21
      -84.000105
 31
        0.000000
  0
LINE
  8
0
 10
        5.250000
 20
      -96.000105
 30
        0.000000
 11
        5.250000
 21
      -93.100105
 31
        0.000000
  0
LINE
  8
0
 10
       -1.650000
 20
      -96.000105
 30
        0.000000
 11
       -1.650000
 21
      -84.000105
 31
        0.000000
  0
LINE
  8
0
 10
        8.250000
 20
      -82.700105
 30
        0.000000
 11
        8.250000
 21
      -97.300105
 31
        0.000000
  0
LINE
  8
0
 10
       -1.650000
 20
      -96.000105
 30
        0.000000
 11
        5.250000
 21
      -96.000105
 31
        0.000000
  0
LINE
  8
0
 10
       -2.650000
 20
      -95.000105
 30
        0.000000
 11
       -1.650000
 21
      -95.000105
 31
        0.000000
  0
LINE
  8
0
 10
       -2.650000
 20
      -85.000105
 30
        0.000000
 11
       -1.650000
 21
      -85.000105
 31
        0.000000
  0
LINE
  8
0
 10
       -2.650000
 20
      -95.000105
 30
        0.000000
 11
       -2.650000
 21
      -85.000105
 31
        0.000000
  0
LINE
  8
0
 10
       -1.650000
 20
      -94.200105
 30
        0.000000
 11
        2.350000
 21
      -94.200105
 31
        0.000000
  0
LINE
  8
0
 10
       -1.650000
 20
      -93.000105
 30
        0.000000
 11
        2.350000
 21
      -93.000105
 31
        0.000000
  0
LINE
  8
0
 10
       -1.650000
 20
      -91.800105
 30
        0.000000
 11
        2.350000
 21
      -91.800105
 31
        0.000000
  0
LINE
  8
0
 10
       -1.650000
 20
      -89.400105
 30
        0.000000
 11
        2.350000
 21
      -89.400105
 31
        0.000000
  0
LINE
  8
0
 10
       -1.650000
 20
      -90.600105
 30
        0.000000
 11
        2.350000
 21
      -90.600105
 31
        0.000000
  0
LINE
  8
0
 10
       -1.650000
 20
      -85.800105
 30
        0.000000
 11
        2.350000
 21
      -85.800105
 31
        0.000000
  0
LINE
  8
0
 10
       -1.650000
 20
      -87.000105
 30
        0.000000
 11
        2.350000
 21
      -87.000105
 31
        0.000000
  0
LINE
  8
0
 10
       -1.650000
 20
      -88.200105
 30
        0.000000
 11
        2.350000
 21
      -88.200105
 31
        0.000000
  0
TEXT
  8
0
 62
  2
 10
      -13.633622
 20
      159.619855
 30
        0.000000
 40
        4.175000
  1
ＪＷ５１ＣＭ
 50
        0.000000
 41
        1.000000
 51
        0.000000
  7
BIGFONT
  0
INSERT
  8
0
 62
  5
  2
BLK0001
 10
        0.000000
 20
        0.000000
  0
INSERT
  8
0
 62
  5
  2
BLK0002
 10
        0.000000
 20
        0.000000
  0
INSERT
  8
0
 62
  5
  2
BLK0003
 10
        0.000000
 20
        0.000000
  0
INSERT
  8
0
 62
  5
  2
BLK0004
 10
        0.000000
 20
        0.000000
  0
TEXT
  8
0
 62
  2
 10
      -13.633622
 20
      167.839438
 30
        0.000000
 40
        4.175000
  1
ＪＷ５０ＦＬ
 50
        0.000000
 41
        1.000000
 51
        0.000000
  7
BIGFONT
  0
LINE
  8
0
 10
       63.499567
 20
      -36.705383
 30
        0.000000
 11
       63.499567
 21
      -61.295349
 31
        0.000000
  0
LINE
  8
0
 10
       65.599565
 20
      -26.760401
 30
        0.000000
 11
       65.599565
 21
      -29.760400
 31
        0.000000
  0
ARC
  8
0
 10
       66.599565
 20
      -26.760400
 30
        0.000000
 40
        1.000000
 50
       90.000000
 51
      180.000021
  0
LINE
  8
0
 10
       66.599565
 20
      -25.760400
 30
        0.000000
 11
       68.099565
 21
      -25.760400
 31
        0.000000
  0
ARC
  8
0
 10
       68.099565
 20
      -26.760400
 30
        0.000000
 40
        1.000000
 50
        0.000011
 51
       90.000000
  0
LINE
  8
0
 10
       65.599572
 20
      -62.160400
 30
        0.000000
 11
       65.599573
 21
      -68.160401
 31
        0.000000
  0
ARC
  8
0
 10
       66.599572
 20
      -68.160400
 30
        0.000000
 40
        0.999999
 50
      180.000021
 51
      270.000000
  0
LINE
  8
0
 10
       66.599572
 20
      -69.160400
 30
        0.000000
 11
       68.099565
 21
      -69.160400
 31
        0.000000
  0
LINE
  8
0
 10
       69.099565
 20
      -26.760400
 30
        0.000000
 11
       69.099573
 21
      -68.160400
 31
        0.000000
  0
ARC
  8
0
 10
       68.099565
 20
      -68.160400
 30
        0.000000
 40
        1.000000
 50
      270.000000
 51
      360.000011
  0
ARC
  8
0
 10
       66.599565
 20
      -68.160400
 30
        0.000000
 40
        0.499992
 50
      180.000021
 51
      270.000000
  0
LINE
  8
0
 10
       66.599565
 20
      -68.660400
 30
        0.000000
 11
       68.099565
 21
      -68.660400
 31
        0.000000
  0
ARC
  8
0
 10
       68.099565
 20
      -68.160400
 30
        0.000000
 40
        0.500000
 50
      270.000000
 51
      360.000011
  0
ARC
  8
0
 10
       66.599565
 20
      -26.760400
 30
        0.000000
 40
        0.500000
 50
       90.000000
 51
      180.000021
  0
LINE
  8
0
 10
       66.599565
 20
      -26.260400
 30
        0.000000
 11
       68.099565
 21
      -26.260400
 31
        0.000000
  0
ARC
  8
0
 10
       68.099565
 20
      -26.760400
 30
        0.000000
 40
        0.500000
 50
        0.000011
 51
       90.000000
  0
ARC
  8
0
 10
       67.099565
 20
      -31.960400
 30
        0.000000
 40
        1.000000
 50
       90.000000
 51
      180.000021
  0
ARC
  8
0
 10
       67.099565
 20
      -62.960400
 30
        0.000000
 40
        0.999993
 50
      180.000021
 51
      270.000000
  0
LINE
  8
0
 10
       66.099565
 20
      -26.760400
 30
        0.000000
 11
       66.099565
 21
      -29.760400
 31
        0.000000
  0
LINE
  8
0
 10
       66.099566
 20
      -31.960401
 30
        0.000000
 11
       66.099573
 21
      -68.160400
 31
        0.000000
  0
LINE
  8
0
 10
       65.599572
 20
      -62.160400
 30
        0.000000
 11
       66.099572
 21
      -62.160400
 31
        0.000000
  0
LINE
  8
0
 10
       65.599565
 20
      -29.760400
 30
        0.000000
 11
       66.099565
 21
      -29.760400
 31
        0.000000
  0
LINE
  8
0
 10
       67.099565
 20
      -30.960400
 30
        0.000000
 11
       69.099566
 21
      -30.960400
 31
        0.000000
  0
LINE
  8
0
 10
       67.099565
 20
      -63.960400
 30
        0.000000
 11
       69.099572
 21
      -63.960400
 31
        0.000000
  0
LINE
  8
0
 10
       68.599565
 20
      -26.760400
 30
        0.000000
 11
       68.599566
 21
      -30.960400
 31
        0.000000
  0
LINE
  8
0
 10
       68.599572
 20
      -63.960400
 30
        0.000000
 11
       68.599573
 21
      -68.160400
 31
        0.000000
  0
LINE
  8
0
 10
       63.499567
 20
      -36.705383
 30
        0.000000
 11
       66.099567
 21
      -36.705383
 31
        0.000000
  0
LINE
  8
0
 10
       69.099567
 20
      -36.705383
 30
        0.000000
 11
       69.599573
 21
      -36.705383
 31
        0.000000
  0
LINE
  8
0
 10
       63.499567
 20
      -61.295349
 30
        0.000000
 11
       66.099571
 21
      -61.295349
 31
        0.000000
  0
LINE
  8
0
 10
       69.099571
 20
      -61.295349
 30
        0.000000
 11
       69.599573
 21
      -61.295349
 31
        0.000000
  0
LINE
  8
0
 10
       67.599572
 20
      -63.960401
 30
        0.000000
 11
       67.599573
 21
      -67.760370
 31
        0.000000
  0
LINE
  8
0
 10
       67.599573
 20
      -67.760370
 30
        0.000000
 11
       68.599573
 21
      -67.760370
 31
        0.000000
  0
LINE
  8
0
 10
       67.599565
 20
      -30.240363
 30
        0.000000
 11
       67.599566
 21
      -30.960400
 31
        0.000000
  0
LINE
  8
0
 10
       67.599565
 20
      -30.240363
 30
        0.000000
 11
       68.599565
 21
      -30.240363
 31
        0.000000
  0
LINE
  8
0
 10
       69.599565
 20
      -29.450378
 30
        0.000000
 11
       69.999895
 21
      -29.450378
 31
        0.000000
  0
LINE
  8
0
 10
       69.599573
 20
      -68.550354
 30
        0.000000
 11
       69.999895
 21
      -68.550354
 31
        0.000000
  0
LINE
  8
0
 10
       69.599565
 20
      -29.450378
 30
        0.000000
 11
       69.599573
 21
      -68.550354
 31
        0.000000
  0
LINE
  8
0
 10
      104.999956
 20
      145.000244
 30
        0.000000
 11
      104.999956
 21
      178.500244
 31
        0.000000
  0
LINE
  8
0
 10
      174.999956
 20
      145.000244
 30
        0.000000
 11
      174.999956
 21
      178.500244
 31
        0.000000
  0
LINE
  8
0
 10
       69.999956
 20
      145.611171
 30
        0.000000
 11
       69.999956
 21
      177.889317
 31
        0.000000
  0
LINE
  8
0
 10
       75.000001
 20
      145.523895
 30
        0.000000
 11
       75.000001
 21
      177.976593
 31
        0.000000
  0
LINE
  8
0
 10
      104.999956
 20
      145.000244
 30
        0.000000
 11
       69.999956
 21
      145.611171
 31
        0.000000
  0
LINE
  8
0
 10
      104.999956
 20
      178.500244
 30
        0.000000
 11
       69.999956
 21
      177.889317
 31
        0.000000
  0
LINE
  8
0
 10
      107.999712
 20
      145.000244
 30
        0.000000
 11
      107.999712
 21
      178.500244
 31
        0.000000
  0
LINE
  8
0
 10
      110.999712
 20
      145.000244
 30
        0.000000
 11
      110.999712
 21
      178.500244
 31
        0.000000
  0
LINE
  8
0
 10
      113.999712
 20
      145.000244
 30
        0.000000
 11
      113.999712
 21
      178.500244
 31
        0.000000
  0
LINE
  8
0
 10
      116.999956
 20
      145.000244
 30
        0.000000
 11
      116.999956
 21
      178.500244
 31
        0.000000
  0
LINE
  8
0
 10
      119.999956
 20
      145.000244
 30
        0.000000
 11
      119.999956
 21
      178.500244
 31
        0.000000
  0
LINE
  8
0
 10
      122.999956
 20
      145.000244
 30
        0.000000
 11
      122.999956
 21
      178.500244
 31
        0.000000
  0
LINE
  8
0
 10
      125.999956
 20
      145.000244
 30
        0.000000
 11
      125.999956
 21
      178.500244
 31
        0.000000
  0
LINE
  8
0
 10
      128.999956
 20
      145.000244
 30
        0.000000
 11
      128.999956
 21
      178.500244
 31
        0.000000
  0
LINE
  8
0
 10
      131.999956
 20
      145.000244
 30
        0.000000
 11
      131.999956
 21
      178.500244
 31
        0.000000
  0
LINE
  8
0
 10
      134.999956
 20
      145.000244
 30
        0.000000
 11
      134.999956
 21
      178.500244
 31
        0.000000
  0
LINE
  8
0
 10
      137.999956
 20
      145.000244
 30
        0.000000
 11
      137.999956
 21
      178.500244
 31
        0.000000
  0
LINE
  8
0
 10
      140.999956
 20
      145.000244
 30
        0.000000
 11
      140.999956
 21
      178.500244
 31
        0.000000
  0
LINE
  8
0
 10
      143.999956
 20
      145.000244
 30
        0.000000
 11
      143.999956
 21
      178.500244
 31
        0.000000
  0
LINE
  8
0
 10
      146.999956
 20
      145.000244
 30
        0.000000
 11
      146.999956
 21
      178.500244
 31
        0.000000
  0
LINE
  8
0
 10
      149.999956
 20
      145.000244
 30
        0.000000
 11
      149.999956
 21
      178.500244
 31
        0.000000
  0
LINE
  8
0
 10
      152.999956
 20
      145.000244
 30
        0.000000
 11
      152.999956
 21
      178.500244
 31
        0.000000
  0
LINE
  8
0
 10
      155.999956
 20
      145.000244
 30
        0.000000
 11
      155.999956
 21
      178.500244
 31
        0.000000
  0
LINE
  8
0
 10
      158.999956
 20
      145.000244
 30
        0.000000
 11
      158.999956
 21
      178.500244
 31
        0.000000
  0
LINE
  8
0
 10
      161.999956
 20
      145.000244
 30
        0.000000
 11
      161.999956
 21
      178.500244
 31
        0.000000
  0
LINE
  8
0
 10
      172.499956
 20
      158.000244
 30
        0.000000
 11
      164.999956
 21
      158.000244
 31
        0.000000
  0
LINE
  8
0
 10
      172.499956
 20
      165.500244
 30
        0.000000
 11
      164.999956
 21
      165.500244
 31
        0.000000
  0
LINE
  8
0
 10
      172.499956
 20
      158.000244
 30
        0.000000
 11
      172.499956
 21
      165.500244
 31
        0.000000
  0
LINE
  8
0
 10
      164.999956
 20
      145.000244
 30
        0.000000
 11
      164.999956
 21
      178.500244
 31
        0.000000
  0
LINE
  8
0
 10
      174.999956
 20
      178.500244
 30
        0.000000
 11
      104.999956
 21
      178.500244
 31
        0.000000
  0
LINE
  8
0
 10
      174.999956
 20
      145.000244
 30
        0.000000
 11
      104.999956
 21
      145.000244
 31
        0.000000
  0
LINE
  8
0
 10
      -16.750000
 20
      -75.000044
 30
        0.000000
 11
       16.750000
 21
      -75.000044
 31
        0.000000
  0
LINE
  8
0
 10
       -0.359985
 20
      -36.705000
 30
        0.000000
 11
        4.537842
 21
      -37.568648
 31
        0.000000
  0
ARC
  8
0
 10
       -0.359985
 20
      -38.305037
 30
        0.000000
 40
        1.599976
 50
       90.000000
 51
      179.999990
  0
LINE
  8
0
 10
       -1.959961
 20
      -59.695051
 30
        0.000000
 11
       -1.959961
 21
      -38.305037
 31
        0.000000
  0
ARC
  8
0
 10
       -0.359985
 20
      -59.695051
 30
        0.000000
 40
        1.599976
 50
      179.999990
 51
      270.000000
  0
LINE
  8
0
 10
       -0.359985
 20
      -61.295088
 30
        0.000000
 11
        4.537842
 21
      -60.431441
 31
        0.000000
  0
ARC
  8
0
 10
        4.260010
 20
      -58.855757
 30
        0.000000
 40
        1.599976
 50
      279.999947
 51
      359.999995
  0
ARC
  8
0
 10
        7.250000
 20
      -67.550032
 30
        0.000000
 40
        1.000000
 50
      270.000000
 51
      359.999995
  0
ARC
  8
0
 10
       -3.349968
 20
      -67.550032
 30
        0.000000
 40
        1.000000
 50
      179.999990
 51
      270.000000
  0
ARC
  8
0
 10
       -3.349968
 20
      -30.449995
 30
        0.000000
 40
        1.000000
 50
       90.000000
 51
      179.999990
  0
ARC
  8
0
 10
        7.250000
 20
      -30.450056
 30
        0.000000
 40
        1.000000
 50
      359.999995
 51
      450.000000
  0
CIRCLE
  8
0
 10
        1.950012
 20
      -32.340040
 30
        0.000000
 40
        2.100000
  0
CIRCLE
  8
0
 10
        1.950012
 20
      -65.660048
 30
        0.000000
 40
        2.100000
  0
LINE
  8
0
 10
        6.200096
 20
      -69.160078
 30
        0.000000
 11
       -2.299904
 21
      -69.160078
 31
        0.000000
  0
ARC
  8
0
 10
        1.950012
 20
      -65.660048
 30
        0.000000
 40
        2.300000
 50
      130.702937
 51
      409.291529
  0
ARC
  8
0
 10
       -0.799904
 20
      -63.660078
 30
        0.000000
 40
        1.500000
 50
       90.000000
 51
      179.999990
  0
LINE
  8
0
 10
        0.450096
 20
      -62.160078
 30
        0.000000
 11
       -0.799904
 21
      -62.160078
 31
        0.000000
  0
LINE
  8
0
 10
        0.450096
 20
      -62.160078
 30
        0.000000
 11
        0.450096
 21
      -63.916416
 31
        0.000000
  0
LINE
  8
0
 10
        3.450096
 20
      -62.160078
 30
        0.000000
 11
        3.450096
 21
      -63.916561
 31
        0.000000
  0
LINE
  8
0
 10
        4.700096
 20
      -62.160078
 30
        0.000000
 11
        3.450096
 21
      -62.160078
 31
        0.000000
  0
ARC
  8
0
 10
        4.700096
 20
      -63.660078
 30
        0.000000
 40
        1.500000
 50
        0.000000
 51
       90.000000
  0
ARC
  8
0
 10
       -0.799904
 20
      -28.260078
 30
        0.000000
 40
        1.500000
 50
      179.999990
 51
      270.000000
  0
ARC
  8
0
 10
        4.700096
 20
      -28.260078
 30
        0.000000
 40
        1.500000
 50
      270.000000
 51
      360.000000
  0
LINE
  8
0
 10
        4.700096
 20
      -29.760078
 30
        0.000000
 11
        3.364310
 21
      -29.760078
 31
        0.000000
  0
ARC
  8
0
 10
        1.950096
 20
      -30.260078
 30
        0.000000
 40
        1.500000
 50
       19.471219
 51
      160.528771
  0
LINE
  8
0
 10
        0.535883
 20
      -29.760078
 30
        0.000000
 11
       -0.799904
 21
      -29.760078
 31
        0.000000
  0
LINE
  8
0
 10
        7.400016
 20
      -30.960078
 30
        0.000000
 11
        7.400016
 21
      -63.960078
 31
        0.000000
  0
LINE
  8
0
 10
       -3.499984
 20
      -30.960078
 30
        0.000000
 11
       -3.499984
 21
      -63.960078
 31
        0.000000
  0
LINE
  8
0
 10
       -2.299904
 20
      -25.760078
 30
        0.000000
 11
       -2.299904
 21
      -30.960078
 31
        0.000000
  0
LINE
  8
0
 10
       -2.299904
 20
      -63.960078
 30
        0.000000
 11
       -2.299904
 21
      -69.160078
 31
        0.000000
  0
LINE
  8
0
 10
        6.200096
 20
      -25.760078
 30
        0.000000
 11
        6.200096
 21
      -30.960078
 31
        0.000000
  0
LINE
  8
0
 10
        6.200096
 20
      -63.960078
 30
        0.000000
 11
        6.200096
 21
      -69.160078
 31
        0.000000
  0
LINE
  8
0
 10
        7.400016
 20
      -30.960078
 30
        0.000000
 11
        6.200096
 21
      -30.960078
 31
        0.000000
  0
LINE
  8
0
 10
       -2.299904
 20
      -30.960078
 30
        0.000000
 11
       -3.499984
 21
      -30.960078
 31
        0.000000
  0
LINE
  8
0
 10
        6.900016
 20
      -30.960078
 30
        0.000000
 11
        6.900016
 21
      -63.960078
 31
        0.000000
  0
LINE
  8
0
 10
       -2.999984
 20
      -30.960078
 30
        0.000000
 11
       -2.999984
 21
      -63.960078
 31
        0.000000
  0
ARC
  8
0
 10
        3.450096
 20
      -58.760078
 30
        0.000000
 40
        3.400000
 50
      270.000000
 51
      360.000000
  0
ARC
  8
0
 10
        0.449936
 20
      -58.760078
 30
        0.000000
 40
        3.400000
 50
      179.999990
 51
      270.000000
  0
ARC
  8
0
 10
        3.450096
 20
      -36.160078
 30
        0.000000
 40
        3.400000
 50
        0.000000
 51
       80.726414
  0
ARC
  8
0
 10
        0.449936
 20
      -36.160078
 30
        0.000000
 40
        3.400000
 50
       99.273702
 51
      179.999990
  0
LINE
  8
0
 10
        7.400016
 20
      -63.960078
 30
        0.000000
 11
        6.200096
 21
      -63.960078
 31
        0.000000
  0
LINE
  8
0
 10
       -2.299904
 20
      -63.960078
 30
        0.000000
 11
       -3.499984
 21
      -63.960078
 31
        0.000000
  0
LINE
  8
0
 10
        7.250000
 20
      -68.550032
 30
        0.000000
 11
        6.200096
 21
      -68.550032
 31
        0.000000
  0
LINE
  8
0
 10
       -2.299904
 20
      -68.550032
 30
        0.000000
 11
       -3.349968
 21
      -68.550032
 31
        0.000000
  0
LINE
  8
0
 10
       -3.349968
 20
      -29.449995
 30
        0.000000
 11
       -2.299904
 21
      -29.450001
 31
        0.000000
  0
LINE
  8
0
 10
        6.200096
 20
      -29.450050
 30
        0.000000
 11
        7.250000
 21
      -29.450056
 31
        0.000000
  0
LINE
  8
0
 10
       -4.349968
 20
      -67.550032
 30
        0.000000
 11
       -4.349968
 21
      -30.449995
 31
        0.000000
  0
LINE
  8
0
 10
        5.860046
 20
      -58.855757
 30
        0.000000
 11
        5.860046
 21
      -39.144331
 31
        0.000000
  0
ARC
  8
0
 10
        4.260010
 20
      -39.144331
 30
        0.000000
 40
        1.599990
 50
      359.999995
 51
      440.000118
  0
LINE
  8
0
 10
        7.800000
 20
     -118.000075
 30
        0.000000
 11
        4.500000
 21
     -118.000075
 31
        0.000000
  0
ARC
  8
0
 10
        4.500000
 20
     -117.000075
 30
        0.000000
 40
        1.000000
 50
      179.999990
 51
      270.000000
  0
LINE
  8
0
 10
        3.500000
 20
     -117.000075
 30
        0.000000
 11
        3.500000
 21
     -108.000075
 31
        0.000000
  0
LINE
  8
0
 10
        7.800000
 20
     -107.000075
 30
        0.000000
 11
        4.500000
 21
     -107.000075
 31
        0.000000
  0
ARC
  8
0
 10
        4.500000
 20
     -108.000075
 30
        0.000000
 40
        1.000000
 50
       90.000000
 51
      179.999990
  0
ARC
  8
0
 10
        7.800000
 20
     -117.000075
 30
        0.000000
 40
        1.000000
 50
      270.000000
 51
      360.000000
  0
LINE
  8
0
 10
        8.800000
 20
     -108.000075
 30
        0.000000
 11
        8.800000
 21
     -117.000075
 31
        0.000000
  0
ARC
  8
0
 10
        7.800000
 20
     -108.000075
 30
        0.000000
 40
        1.000000
 50
        0.000000
 51
       90.000000
  0
LINE
  8
0
 10
       -3.200000
 20
      -97.800105
 30
        0.000000
 11
        7.800000
 21
      -97.800105
 31
        0.000000
  0
ARC
  8
0
 10
        7.800000
 20
      -96.800105
 30
        0.000000
 40
        1.000000
 50
      270.000000
 51
      360.000000
  0
LINE
  8
0
 10
        8.800000
 20
      -83.200105
 30
        0.000000
 11
        8.800000
 21
      -96.800105
 31
        0.000000
  0
LINE
  8
0
 10
       -3.200000
 20
      -82.200105
 30
        0.000000
 11
        7.800000
 21
      -82.200105
 31
        0.000000
  0
ARC
  8
0
 10
        7.800000
 20
      -83.200105
 30
        0.000000
 40
        1.000000
 50
        0.000000
 51
       90.000000
  0
ARC
  8
0
 10
       -3.200000
 20
      -96.800105
 30
        0.000000
 40
        1.000000
 50
      179.999990
 51
      270.000000
  0
LINE
  8
0
 10
       -4.200000
 20
      -96.800105
 30
        0.000000
 11
       -4.200000
 21
      -83.200105
 31
        0.000000
  0
ARC
  8
0
 10
       -3.200000
 20
      -83.200105
 30
        0.000000
 40
        1.000000
 50
       90.000000
 51
      179.999990
  0
LINE
  8
0
 10
       -7.250000
 20
      -72.000044
 30
        0.000000
 11
       10.750000
 21
      -72.000044
 31
        0.000000
  0
LINE
  8
0
 10
       -7.250000
 20
      -26.000044
 30
        0.000000
 11
       -7.250000
 21
      -72.000044
 31
        0.000000
  0
LINE
  8
0
 10
       10.750000
 20
      -26.000044
 30
        0.000000
 11
       10.750000
 21
      -72.000044
 31
        0.000000
  0
LINE
  8
0
 10
        8.250000
 20
      -26.000044
 30
        0.000000
 11
        8.250000
 21
      -72.000044
 31
        0.000000
  0
LINE
  8
0
 10
        6.200096
 20
      -25.760078
 30
        0.000000
 11
       -2.299904
 21
      -25.760078
 31
        0.000000
  0
LINE
  8
0
 10
       -7.250000
 20
      -26.000044
 30
        0.000000
 11
       10.750000
 21
      -26.000044
 31
        0.000000
  0
LINE
  8
0
 10
       -8.250000
 20
      -25.000244
 30
        0.000000
 11
       11.750000
 21
      -25.000244
 31
        0.000000
  0
LINE
  8
0
 10
      105.000000
 20
      125.000000
 30
        0.000000
 11
       75.491699
 21
      124.485107
 31
        0.000000
  0
ARC
  8
0
 10
       75.500000
 20
      123.985107
 30
        0.000000
 40
        0.499955
 50
       91.007286
 51
      180.000015
  0
LINE
  8
0
 10
      105.000000
 20
     -125.000000
 30
        0.000000
 11
       70.000000
 21
     -124.388916
 31
        0.000000
  0
ARC
  8
0
 10
       70.500000
 20
       69.500000
 30
        0.000000
 40
        0.500000
 50
       90.000000
 51
      180.000015
  0
LINE
  8
0
 10
       70.500000
 20
       70.000000
 30
        0.000000
 11
       72.000000
 21
       70.000000
 31
        0.000000
  0
LINE
  8
0
 10
       72.000000
 20
       75.000000
 30
        0.000000
 11
       72.000000
 21
       70.000000
 31
        0.000000
  0
LINE
  8
0
 10
       70.000000
 20
       69.500000
 30
        0.000000
 11
       70.000000
 21
     -124.388916
 31
        0.000000
  0
LINE
  8
0
 10
       70.000000
 20
       75.000000
 30
        0.000000
 11
       70.000000
 21
      124.399963
 31
        0.000000
  0
LINE
  8
0
 10
       70.000000
 20
      124.399963
 30
        0.000000
 11
       75.000000
 21
      124.399963
 31
        0.000000
  0
LINE
  8
0
 10
       70.000000
 20
       75.000000
 30
        0.000000
 11
       75.000000
 21
       75.000000
 31
        0.000000
  0
LINE
  8
0
 10
       75.000000
 20
       75.000000
 30
        0.000000
 11
       75.000000
 21
      124.399963
 31
        0.000000
  0
CIRCLE
  8
0
 10
        1.249878
 20
       90.000000
 30
        0.000000
 40
        1.000122
  0
CIRCLE
  8
0
 10
       -3.750122
 20
       90.000000
 30
        0.000000
 40
        1.000000
  0
CIRCLE
  8
0
 10
        1.249878
 20
       93.000000
 30
        0.000000
 40
        1.000122
  0
CIRCLE
  8
0
 10
       -3.750122
 20
       93.000000
 30
        0.000000
 40
        1.000000
  0
CIRCLE
  8
0
 10
        1.249878
 20
       96.000000
 30
        0.000000
 40
        1.000122
  0
CIRCLE
  8
0
 10
       -3.750122
 20
       96.000000
 30
        0.000000
 40
        1.000000
  0
CIRCLE
  8
0
 10
        1.249878
 20
       99.000000
 30
        0.000000
 40
        1.000122
  0
CIRCLE
  8
0
 10
       -3.750122
 20
       99.000000
 30
        0.000000
 40
        1.000000
  0
CIRCLE
  8
0
 10
        1.249878
 20
      102.000000
 30
        0.000000
 40
        1.000122
  0
CIRCLE
  8
0
 10
       -3.750122
 20
      102.000000
 30
        0.000000
 40
        1.000000
  0
CIRCLE
  8
0
 10
        1.249878
 20
      105.000000
 30
        0.000000
 40
        1.000122
  0
CIRCLE
  8
0
 10
       -3.750122
 20
      105.000000
 30
        0.000000
 40
        1.000000
  0
CIRCLE
  8
0
 10
        1.249878
 20
      108.000000
 30
        0.000000
 40
        1.000122
  0
CIRCLE
  8
0
 10
       -3.750122
 20
      108.000000
 30
        0.000000
 40
        1.000000
  0
CIRCLE
  8
0
 10
        1.249878
 20
      111.000000
 30
        0.000000
 40
        1.000122
  0
CIRCLE
  8
0
 10
       -3.750122
 20
      111.000000
 30
        0.000000
 40
        1.000000
  0
LINE
  8
0
 10
       -8.250000
 20
      -15.000244
 30
        0.000000
 11
       11.750000
 21
      -15.000244
 31
        0.000000
  0
LINE
  8
0
 10
       -8.250000
 20
       65.000000
 30
        0.000000
 11
       11.750000
 21
       65.000000
 31
        0.000000
  0
LINE
  8
0
 10
       -8.250000
 20
       75.000000
 30
        0.000000
 11
       -8.250000
 21
      -25.000244
 31
        0.000000
  0
LINE
  8
0
 10
       11.750000
 20
       75.000000
 30
        0.000000
 11
       11.750000
 21
      -25.000244
 31
        0.000000
  0
LINE
  8
0
 10
      162.000200
 20
     -125.000000
 30
        0.000000
 11
      105.000000
 21
     -125.000000
 31
        0.000000
  0
LINE
  8
0
 10
      174.999956
 20
     -123.500000
 30
        0.000000
 11
      162.000200
 21
     -123.500000
 31
        0.000000
  0
LINE
  8
0
 10
      165.000200
 20
     -123.500000
 30
        0.000000
 11
      165.000200
 21
     -125.000000
 31
        0.000000
  0
LINE
  8
0
 10
      172.499956
 20
     -125.000000
 30
        0.000000
 11
      165.000200
 21
     -125.000000
 31
        0.000000
  0
LINE
  8
0
 10
      172.499956
 20
     -123.500000
 30
        0.000000
 11
      172.499956
 21
     -125.000000
 31
        0.000000
  0
LINE
  8
0
 10
      162.000200
 20
     -123.500000
 30
        0.000000
 11
      162.000200
 21
     -125.000000
 31
        0.000000
  0
LINE
  8
0
 10
      174.999956
 20
       -5.500000
 30
        0.000000
 11
      174.999956
 21
     -123.500000
 31
        0.000000
  0
LINE
  8
0
 10
      172.499956
 20
       -5.500000
 30
        0.000000
 11
      174.999956
 21
       -5.500000
 31
        0.000000
  0
LINE
  8
0
 10
      162.000200
 20
      125.000244
 30
        0.000000
 11
      105.000000
 21
      125.000244
 31
        0.000000
  0
LINE
  8
0
 10
      174.999956
 20
      123.500244
 30
        0.000000
 11
      174.999956
 21
       81.500244
 31
        0.000000
  0
LINE
  8
0
 10
      172.499956
 20
      125.000244
 30
        0.000000
 11
      165.000200
 21
      125.000244
 31
        0.000000
  0
LINE
  8
0
 10
      174.999956
 20
       81.500244
 30
        0.000000
 11
      172.499956
 21
       81.500244
 31
        0.000000
  0
LINE
  8
0
 10
      172.499956
 20
       81.500244
 30
        0.000000
 11
      172.499956
 21
       -5.500000
 31
        0.000000
  0
LINE
  8
0
 10
      174.999956
 20
      123.500244
 30
        0.000000
 11
      162.000200
 21
      123.500244
 31
        0.000000
  0
LINE
  8
0
 10
      165.000200
 20
      125.000244
 30
        0.000000
 11
      165.000200
 21
      123.500244
 31
        0.000000
  0
LINE
  8
0
 10
      172.499956
 20
      125.000244
 30
        0.000000
 11
      172.499956
 21
      123.500244
 31
        0.000000
  0
LINE
  8
0
 10
      162.000200
 20
      123.500244
 30
        0.000000
 11
      162.000200
 21
      125.000244
 31
        0.000000
  0
LINE
  8
0
 10
      114.499268
 20
      -12.500000
 30
        0.000000
 11
      114.499268
 21
       12.500000
 31
        0.000000
  0
LINE
  8
0
 10
      164.499268
 20
      -12.500000
 30
        0.000000
 11
      114.499268
 21
      -12.500000
 31
        0.000000
  0
LINE
  8
0
 10
      164.499268
 20
       12.500000
 30
        0.000000
 11
      164.499268
 21
      -12.500000
 31
        0.000000
  0
LINE
  8
0
 10
      114.499268
 20
       12.500000
 30
        0.000000
 11
      164.499268
 21
       12.500000
 31
        0.000000
  0
LINE
  8
0
 10
      105.000000
 20
      125.000244
 30
        0.000000
 11
      105.000000
 21
     -125.000000
 31
        0.000000
  0
LINE
  8
0
 10
      111.000000
 20
      -43.500000
 30
        0.000000
 11
      111.000000
 21
      -56.500000
 31
        0.000000
  0
LINE
  8
0
 10
      108.000000
 20
      -43.500000
 30
        0.000000
 11
      108.000000
 21
      -56.500000
 31
        0.000000
  0
LINE
  8
0
 10
      111.000000
 20
      -43.500000
 30
        0.000000
 11
      108.000000
 21
      -43.500000
 31
        0.000000
  0
LINE
  8
0
 10
      111.000000
 20
      -56.500000
 30
        0.000000
 11
      108.000000
 21
      -56.500000
 31
        0.000000
  0
LINE
  8
0
 10
      111.000000
 20
       43.500244
 30
        0.000000
 11
      108.000000
 21
       43.500244
 31
        0.000000
  0
LINE
  8
0
 10
      111.000000
 20
       56.500244
 30
        0.000000
 11
      108.000000
 21
       56.500244
 31
        0.000000
  0
LINE
  8
0
 10
      108.000000
 20
       56.500244
 30
        0.000000
 11
      108.000000
 21
       43.500244
 31
        0.000000
  0
LINE
  8
0
 10
      111.000000
 20
       56.500244
 30
        0.000000
 11
      111.000000
 21
       43.500244
 31
        0.000000
  0
LINE
  8
0
  6
CENTER
 10
       30.000000
 20
        0.000000
 30
        0.000000
 11
      -30.000000
 21
        0.000000
 31
        0.000000
  0
LINE
  8
0
  6
CENTER
 10
        0.000000
 20
      135.000000
 30
        0.000000
 11
        0.000000
 21
     -140.000000
 31
        0.000000
  0
LINE
  8
0
 10
       16.750000
 20
      125.000000
 30
        0.000000
 11
       16.750000
 21
     -125.000000
 31
        0.000000
  0
LINE
  8
0
 10
      -16.750000
 20
       75.000000
 30
        0.000000
 11
       16.750000
 21
       75.000000
 31
        0.000000
  0
LINE
  8
0
 10
      -16.750000
 20
      125.000000
 30
        0.000000
 11
      -16.750000
 21
     -125.000000
 31
        0.000000
  0
LINE
  8
0
 10
      -16.750000
 20
     -125.000000
 30
        0.000000
 11
       16.750000
 21
     -125.000000
 31
        0.000000
  0
LINE
  8
0
 10
      -16.750000
 20
      125.000000
 30
        0.000000
 11
       16.750000
 21
      125.000000
 31
        0.000000
  0
LINE
  8
0
 10
      -14.750000
 20
      122.000000
 30
        0.000000
 11
      -14.750000
 21
      115.000000
 31
        0.000000
  0
LINE
  8
0
 10
       14.750000
 20
      122.000000
 30
        0.000000
 11
       14.750000
 21
      115.000000
 31
        0.000000
  0
LINE
  8
0
 10
      -14.750000
 20
      122.000000
 30
        0.000000
 11
       14.750000
 21
      122.000000
 31
        0.000000
  0
LINE
  8
0
 10
      -14.750000
 20
      115.000000
 30
        0.000000
 11
       14.750000
 21
      115.000000
 31
        0.000000
  0
LINE
  8
0
 10
       -5.299805
 20
        2.199707
 30
        0.000000
 11
       -5.299805
 21
        9.199707
 31
        0.000000
  0
LINE
  8
0
 10
       -5.299805
 20
       47.799805
 30
        0.000000
 11
       -5.299805
 21
       40.799805
 31
        0.000000
  0
LINE
  8
0
 10
       -6.250000
 20
       57.500000
 30
        0.000000
 11
       -6.250000
 21
       -7.500244
 31
        0.000000
  0
LINE
  8
0
 10
        4.276367
 20
       57.500000
 30
        0.000000
 11
        9.750000
 21
       57.500000
 31
        0.000000
  0
LINE
  8
0
 10
        0.762207
 20
       57.500000
 30
        0.000000
 11
        3.138672
 21
       57.500000
 31
        0.000000
  0
LINE
  8
0
 10
        4.275879
 20
       -7.500244
 30
        0.000000
 11
        9.750000
 21
       -7.500244
 31
        0.000000
  0
LINE
  8
0
 10
        0.762207
 20
       -7.500244
 30
        0.000000
 11
        3.138672
 21
       -7.500244
 31
        0.000000
  0
CIRCLE
  8
0
 10
        1.950684
 20
        1.479004
 30
        0.000000
 40
        2.500000
  0
CIRCLE
  8
0
 10
        1.950684
 20
       48.519043
 30
        0.000000
 40
        2.500000
  0
LINE
  8
0
 10
        3.550293
 20
       -1.800293
 30
        0.000000
 11
        0.350586
 21
       -1.800293
 31
        0.000000
  0
LINE
  8
0
 10
        0.350586
 20
       51.799805
 30
        0.000000
 11
        3.550293
 21
       51.799805
 31
        0.000000
  0
LINE
  8
0
 10
        8.250488
 20
        2.199707
 30
        0.000000
 11
        8.250488
 21
       -1.500244
 31
        0.000000
  0
LINE
  8
0
 10
       -4.349609
 20
        2.199707
 30
        0.000000
 11
       -4.349609
 21
       -1.500244
 31
        0.000000
  0
LINE
  8
0
 10
        8.250488
 20
       40.799805
 30
        0.000000
 11
        8.250488
 21
        9.199707
 31
        0.000000
  0
LINE
  8
0
 10
       -4.349609
 20
       40.799805
 30
        0.000000
 11
       -4.349609
 21
        9.199707
 31
        0.000000
  0
LINE
  8
0
 10
       -4.199707
 20
       -1.500244
 30
        0.000000
 11
       -4.349609
 21
       -1.500244
 31
        0.000000
  0
LINE
  8
0
 10
       -4.199707
 20
       51.499756
 30
        0.000000
 11
       -4.349609
 21
       51.499756
 31
        0.000000
  0
ARC
  8
0
 10
       -0.360352
 20
        8.290039
 30
        0.000000
 40
        1.600098
 50
      180.000015
 51
      260.000910
  0
ARC
  8
0
 10
       -0.360352
 20
       41.711426
 30
        0.000000
 40
        1.599990
 50
       99.999872
 51
      180.000015
  0
LINE
  8
0
 10
        4.259277
 20
       44.150879
 30
        0.000000
 11
       -0.638184
 21
       43.287109
 31
        0.000000
  0
LINE
  8
0
 10
        4.259277
 20
        5.850586
 30
        0.000000
 11
       -0.638184
 21
        6.714355
 31
        0.000000
  0
ARC
  8
0
 10
        4.259277
 20
       42.550781
 30
        0.000000
 40
        1.600098
 50
        0.000000
 51
       90.000000
  0
ARC
  8
0
 10
        4.259277
 20
        7.450684
 30
        0.000000
 40
        1.599854
 50
      270.000000
 51
      360.000000
  0
LINE
  8
0
 10
       -1.960449
 20
        8.290039
 30
        0.000000
 11
       -1.960449
 21
       41.711426
 31
        0.000000
  0
LINE
  8
0
 10
        5.859375
 20
        7.450684
 30
        0.000000
 11
        5.859375
 21
       42.550781
 31
        0.000000
  0
ARC
  8
0
 10
       -1.549805
 20
      -14.900391
 30
        0.000000
 40
        1.499835
 50
      148.038113
 51
      211.961897
  0
ARC
  8
0
 10
        5.450195
 20
      -14.900391
 30
        0.000000
 40
        1.499835
 50
      328.038142
 51
      391.961882
  0
ARC
  8
0
 10
        1.950195
 20
      -22.400391
 30
        0.000000
 40
        0.500083
 50
      211.952034
 51
      328.048004
  0
ARC
  8
0
 10
       -0.049805
 20
       -6.900391
 30
        0.000000
 40
        1.000143
 50
      331.495583
 51
      360.000000
  0
ARC
  8
0
 10
        3.950195
 20
       -6.900391
 30
        0.000000
 40
        1.000000
 50
      180.000015
 51
      208.509441
  0
LINE
  8
0
 10
        6.768555
 20
      -14.184326
 30
        0.000000
 11
        3.071777
 21
       -7.377441
 31
        0.000000
  0
LINE
  8
0
 10
       -2.867676
 20
      -14.184326
 30
        0.000000
 11
        0.829102
 21
       -7.377441
 31
        0.000000
  0
LINE
  8
0
 10
        1.526367
 20
      -22.665039
 30
        0.000000
 11
       -2.822266
 21
      -15.694336
 31
        0.000000
  0
LINE
  8
0
 10
        2.374512
 20
      -22.665039
 30
        0.000000
 11
        6.723145
 21
      -15.694336
 31
        0.000000
  0
ARC
  8
0
 10
       -1.549805
 20
      -14.900391
 30
        0.000000
 40
        2.499871
 50
      151.492686
 51
      208.507324
  0
ARC
  8
0
 10
        5.450195
 20
      -14.900391
 30
        0.000000
 40
        2.499871
 50
      331.492715
 51
      388.507299
  0
ARC
  8
0
 10
        1.950195
 20
      -22.400391
 30
        0.000000
 40
        1.499835
 50
      211.961897
 51
      328.038142
  0
LINE
  8
0
 10
        7.647461
 20
      -13.707031
 30
        0.000000
 11
        3.950195
 21
       -6.900391
 31
        0.000000
  0
LINE
  8
0
 10
       -3.746582
 20
      -13.707031
 30
        0.000000
 11
       -0.049805
 21
       -6.900391
 31
        0.000000
  0
LINE
  8
0
 10
        3.223145
 20
      -23.194336
 30
        0.000000
 11
        7.571777
 21
      -16.223389
 31
        0.000000
  0
LINE
  8
0
 10
       -3.670898
 20
      -16.223389
 30
        0.000000
 11
        0.677734
 21
      -23.194336
 31
        0.000000
  0
ARC
  8
0
 10
        3.950195
 20
       -5.400391
 30
        0.000000
 40
        1.000000
 50
       90.000000
 51
      180.000015
  0
ARC
  8
0
 10
       -0.049805
 20
       -5.400391
 30
        0.000000
 40
        1.000000
 50
        0.000000
 51
       90.000000
  0
LINE
  8
0
 10
       -0.049805
 20
       -4.400391
 30
        0.000000
 11
       -0.499512
 21
       -4.400391
 31
        0.000000
  0
LINE
  8
0
 10
       -0.049805
 20
       -5.400391
 30
        0.000000
 11
       -0.499512
 21
       -5.400391
 31
        0.000000
  0
LINE
  8
0
 10
        4.400391
 20
       -4.400391
 30
        0.000000
 11
        3.950195
 21
       -4.400391
 31
        0.000000
  0
LINE
  8
0
 10
        4.400391
 20
       -5.400391
 30
        0.000000
 11
        3.950195
 21
       -5.400391
 31
        0.000000
  0
LINE
  8
0
 10
        2.950195
 20
       -6.900391
 30
        0.000000
 11
        2.950195
 21
       -5.400391
 31
        0.000000
  0
LINE
  8
0
 10
        0.950195
 20
       -6.900391
 30
        0.000000
 11
        0.950195
 21
       -5.400391
 31
        0.000000
  0
LINE
  8
0
 10
        3.950195
 20
       -6.900391
 30
        0.000000
 11
        3.950195
 21
       -5.400391
 31
        0.000000
  0
LINE
  8
0
 10
       -0.049805
 20
       -6.900391
 30
        0.000000
 11
       -0.049805
 21
       -5.400391
 31
        0.000000
  0
LINE
  8
0
 10
        0.350586
 20
       -1.800293
 30
        0.000000
 11
       -0.499512
 21
       -1.800293
 31
        0.000000
  0
LINE
  8
0
 10
        4.400391
 20
       -1.800293
 30
        0.000000
 11
        3.550293
 21
       -1.800293
 31
        0.000000
  0
LINE
  8
0
 10
       -0.499512
 20
       -6.400391
 30
        0.000000
 11
       -4.199707
 21
       -6.400391
 31
        0.000000
  0
LINE
  8
0
 10
        2.950195
 20
       -5.400391
 30
        0.000000
 11
        0.950195
 21
       -5.400391
 31
        0.000000
  0
LINE
  8
0
 10
       -0.499512
 20
       -3.400391
 30
        0.000000
 11
       -4.199707
 21
       -3.400391
 31
        0.000000
  0
LINE
  8
0
 10
        4.400391
 20
       -6.400391
 30
        0.000000
 11
        4.400391
 21
       -1.800293
 31
        0.000000
  0
LINE
  8
0
 10
       -0.499512
 20
       -6.400391
 30
        0.000000
 11
       -0.499512
 21
       -1.800293
 31
        0.000000
  0
LINE
  8
0
 10
        8.100586
 20
       -3.400391
 30
        0.000000
 11
        4.400391
 21
       -3.400391
 31
        0.000000
  0
LINE
  8
0
 10
        3.550293
 20
       -4.483887
 30
        0.000000
 11
        3.550293
 21
       -1.800293
 31
        0.000000
  0
LINE
  8
0
 10
        0.350586
 20
       -4.484131
 30
        0.000000
 11
        0.350586
 21
       -1.800293
 31
        0.000000
  0
LINE
  8
0
 10
       -3.049805
 20
        9.199707
 30
        0.000000
 11
       -5.299805
 21
        9.199707
 31
        0.000000
  0
ARC
  8
0
 10
        4.950195
 20
        6.699707
 30
        0.000000
 40
        2.000000
 50
      270.000000
 51
      360.000000
  0
ARC
  8
0
 10
       -1.049805
 20
        6.699707
 30
        0.000000
 40
        2.000000
 50
      180.000015
 51
      270.000000
  0
LINE
  8
0
 10
        4.950195
 20
        4.699707
 30
        0.000000
 11
       -1.049805
 21
        4.699707
 31
        0.000000
  0
LINE
  8
0
 10
        6.950195
 20
        6.699707
 30
        0.000000
 11
        6.950195
 21
        9.199707
 31
        0.000000
  0
LINE
  8
0
 10
       -3.049805
 20
        6.699707
 30
        0.000000
 11
       -3.049805
 21
        9.199707
 31
        0.000000
  0
LINE
  8
0
 10
       -4.199707
 20
        2.199707
 30
        0.000000
 11
       -5.299805
 21
        2.199707
 31
        0.000000
  0
LINE
  8
0
 10
        8.100586
 20
       -6.400391
 30
        0.000000
 11
        8.100586
 21
        2.199707
 31
        0.000000
  0
LINE
  8
0
 10
       -4.199707
 20
       -6.400391
 30
        0.000000
 11
       -4.199707
 21
        2.199707
 31
        0.000000
  0
LINE
  8
0
 10
        9.200195
 20
        2.199707
 30
        0.000000
 11
        9.200195
 21
        9.199707
 31
        0.000000
  0
LINE
  8
0
 10
        9.200195
 20
        2.199707
 30
        0.000000
 11
        8.100586
 21
        2.199707
 31
        0.000000
  0
LINE
  8
0
 10
        9.200195
 20
        9.199707
 30
        0.000000
 11
        6.950195
 21
        9.199707
 31
        0.000000
  0
LINE
  8
0
 10
        8.100586
 20
       -6.400391
 30
        0.000000
 11
        4.400391
 21
       -6.400391
 31
        0.000000
  0
ARC
  8
0
 10
       -1.549805
 20
       64.899902
 30
        0.000000
 40
        1.499835
 50
      148.038113
 51
      211.961897
  0
ARC
  8
0
 10
        5.450195
 20
       64.899902
 30
        0.000000
 40
        1.499835
 50
      328.038142
 51
      391.961882
  0
ARC
  8
0
 10
        1.950195
 20
       72.399902
 30
        0.000000
 40
        0.500083
 50
       31.952012
 51
      148.047976
  0
ARC
  8
0
 10
       -0.049805
 20
       56.899902
 30
        0.000000
 40
        1.000000
 50
        0.000000
 51
       28.509423
  0
ARC
  8
0
 10
        3.950195
 20
       56.899902
 30
        0.000000
 40
        1.000143
 50
      151.495568
 51
      180.000015
  0
LINE
  8
0
 10
        6.768555
 20
       64.183838
 30
        0.000000
 11
        3.071777
 21
       57.376953
 31
        0.000000
  0
LINE
  8
0
 10
       -2.867676
 20
       64.183838
 30
        0.000000
 11
        0.829102
 21
       57.376953
 31
        0.000000
  0
LINE
  8
0
 10
        1.526367
 20
       72.664551
 30
        0.000000
 11
       -2.822266
 21
       65.693604
 31
        0.000000
  0
LINE
  8
0
 10
        2.374512
 20
       72.664551
 30
        0.000000
 11
        6.723145
 21
       65.693604
 31
        0.000000
  0
ARC
  8
0
 10
       -1.549805
 20
       64.899902
 30
        0.000000
 40
        2.499871
 50
      151.492686
 51
      208.507324
  0
ARC
  8
0
 10
        5.450195
 20
       64.899902
 30
        0.000000
 40
        2.499871
 50
      331.492715
 51
      388.507299
  0
ARC
  8
0
 10
        1.950195
 20
       72.399902
 30
        0.000000
 40
        1.499835
 50
       31.961882
 51
      148.038113
  0
LINE
  8
0
 10
        7.647461
 20
       63.706543
 30
        0.000000
 11
        3.950195
 21
       56.899902
 31
        0.000000
  0
LINE
  8
0
 10
       -3.746582
 20
       63.706543
 30
        0.000000
 11
       -0.049805
 21
       56.899902
 31
        0.000000
  0
LINE
  8
0
 10
        3.223145
 20
       73.193604
 30
        0.000000
 11
        7.571777
 21
       66.222900
 31
        0.000000
  0
LINE
  8
0
 10
       -3.670898
 20
       66.222900
 30
        0.000000
 11
        0.677734
 21
       73.193604
 31
        0.000000
  0
ARC
  8
0
 10
        3.950195
 20
       55.399902
 30
        0.000000
 40
        1.000000
 50
      180.000015
 51
      270.000000
  0
ARC
  8
0
 10
       -0.049805
 20
       55.399902
 30
        0.000000
 40
        1.000000
 50
      270.000000
 51
      360.000000
  0
LINE
  8
0
 10
       -0.049805
 20
       54.399902
 30
        0.000000
 11
       -0.499512
 21
       54.399902
 31
        0.000000
  0
LINE
  8
0
 10
       -0.049805
 20
       55.399902
 30
        0.000000
 11
       -0.499512
 21
       55.399902
 31
        0.000000
  0
LINE
  8
0
 10
        4.400391
 20
       54.399902
 30
        0.000000
 11
        3.950195
 21
       54.399902
 31
        0.000000
  0
LINE
  8
0
 10
        4.400391
 20
       55.399902
 30
        0.000000
 11
        3.950195
 21
       55.399902
 31
        0.000000
  0
LINE
  8
0
 10
        2.950195
 20
       56.899902
 30
        0.000000
 11
        2.950195
 21
       55.399902
 31
        0.000000
  0
LINE
  8
0
 10
        0.950195
 20
       56.899902
 30
        0.000000
 11
        0.950195
 21
       55.399902
 31
        0.000000
  0
LINE
  8
0
 10
        3.950195
 20
       56.899902
 30
        0.000000
 11
        3.950195
 21
       55.399902
 31
        0.000000
  0
LINE
  8
0
 10
       -0.049805
 20
       56.899902
 30
        0.000000
 11
       -0.049805
 21
       55.399902
 31
        0.000000
  0
LINE
  8
0
 10
        0.350586
 20
       51.799805
 30
        0.000000
 11
       -0.499512
 21
       51.799805
 31
        0.000000
  0
LINE
  8
0
 10
        4.400391
 20
       51.799805
 30
        0.000000
 11
        3.550293
 21
       51.799805
 31
        0.000000
  0
LINE
  8
0
 10
       -0.499512
 20
       56.399902
 30
        0.000000
 11
       -4.199707
 21
       56.399902
 31
        0.000000
  0
LINE
  8
0
 10
        2.950195
 20
       55.399902
 30
        0.000000
 11
        0.950195
 21
       55.399902
 31
        0.000000
  0
LINE
  8
0
 10
       -0.499512
 20
       53.399902
 30
        0.000000
 11
       -4.199707
 21
       53.399902
 31
        0.000000
  0
LINE
  8
0
 10
        4.400391
 20
       56.399902
 30
        0.000000
 11
        4.400391
 21
       51.799805
 31
        0.000000
  0
LINE
  8
0
 10
       -0.499512
 20
       56.399902
 30
        0.000000
 11
       -0.499512
 21
       51.799805
 31
        0.000000
  0
LINE
  8
0
 10
        8.100586
 20
       53.399902
 30
        0.000000
 11
        4.400391
 21
       53.399902
 31
        0.000000
  0
LINE
  8
0
 10
        3.550293
 20
       54.483398
 30
        0.000000
 11
        3.550293
 21
       51.799805
 31
        0.000000
  0
LINE
  8
0
 10
        0.350586
 20
       54.483643
 30
        0.000000
 11
        0.350586
 21
       51.799805
 31
        0.000000
  0
LINE
  8
0
 10
       -3.049805
 20
       40.799805
 30
        0.000000
 11
       -5.299805
 21
       40.799805
 31
        0.000000
  0
ARC
  8
0
 10
        4.950195
 20
       43.299805
 30
        0.000000
 40
        2.000000
 50
        0.000000
 51
       90.000000
  0
ARC
  8
0
 10
       -1.049805
 20
       43.299805
 30
        0.000000
 40
        2.000000
 50
       90.000000
 51
      180.000015
  0
LINE
  8
0
 10
        4.950195
 20
       45.299805
 30
        0.000000
 11
       -1.049805
 21
       45.299805
 31
        0.000000
  0
LINE
  8
0
 10
        6.950195
 20
       43.299805
 30
        0.000000
 11
        6.950195
 21
       40.799805
 31
        0.000000
  0
LINE
  8
0
 10
       -3.049805
 20
       43.299805
 30
        0.000000
 11
       -3.049805
 21
       40.799805
 31
        0.000000
  0
LINE
  8
0
 10
       -4.199707
 20
       47.799805
 30
        0.000000
 11
       -5.299805
 21
       47.799805
 31
        0.000000
  0
LINE
  8
0
 10
        8.100586
 20
       56.399902
 30
        0.000000
 11
        8.100586
 21
       47.799805
 31
        0.000000
  0
LINE
  8
0
 10
       -4.199707
 20
       56.399902
 30
        0.000000
 11
       -4.199707
 21
       47.799805
 31
        0.000000
  0
LINE
  8
0
 10
        9.200195
 20
       47.799805
 30
        0.000000
 11
        9.200195
 21
       40.799805
 31
        0.000000
  0
LINE
  8
0
 10
        9.200195
 20
       47.799805
 30
        0.000000
 11
        8.100586
 21
       47.799805
 31
        0.000000
  0
LINE
  8
0
 10
        9.200195
 20
       40.799805
 30
        0.000000
 11
        6.950195
 21
       40.799805
 31
        0.000000
  0
LINE
  8
0
 10
        8.100586
 20
       56.399902
 30
        0.000000
 11
        4.400391
 21
       56.399902
 31
        0.000000
  0
LINE
  8
0
 10
        8.250488
 20
       -1.500244
 30
        0.000000
 11
        8.100586
 21
       -1.500244
 31
        0.000000
  0
LINE
  8
0
 10
        8.250488
 20
       51.499756
 30
        0.000000
 11
        8.100586
 21
       51.499756
 31
        0.000000
  0
LINE
  8
0
 10
        8.250488
 20
       51.499756
 30
        0.000000
 11
        8.250488
 21
       47.799805
 31
        0.000000
  0
LINE
  8
0
 10
       -4.349609
 20
       51.499756
 30
        0.000000
 11
       -4.349609
 21
       47.799805
 31
        0.000000
  0
LINE
  8
0
 10
       -6.250000
 20
       -7.500244
 30
        0.000000
 11
       -0.375488
 21
       -7.500244
 31
        0.000000
  0
LINE
  8
0
 10
       -6.250000
 20
       57.500000
 30
        0.000000
 11
       -0.375488
 21
       57.500000
 31
        0.000000
  0
LINE
  8
0
 10
        9.750000
 20
       57.500000
 30
        0.000000
 11
        9.750000
 21
       -7.500244
 31
        0.000000
  0
LINE
  8
0
 10
        7.750000
 20
     -117.000075
 30
        0.000000
 11
        4.550000
 21
     -117.000075
 31
        0.000000
  0
LINE
  8
0
 10
        8.250000
 20
     -117.500075
 30
        0.000000
 11
        4.050000
 21
     -117.500075
 31
        0.000000
  0
CIRCLE
  8
0
 10
        6.150000
 20
     -110.000075
 30
        0.000000
 40
        0.500000
  0
CIRCLE
  8
0
 10
        6.150000
 20
     -112.500075
 30
        0.000000
 40
        0.500000
  0
CIRCLE
  8
0
 10
        6.150000
 20
     -115.000075
 30
        0.000000
 40
        0.500000
  0
LINE
  8
0
 10
        7.750000
 20
     -108.000075
 30
        0.000000
 11
        4.550000
 21
     -108.000075
 31
        0.000000
  0
LINE
  8
0
 10
        8.250000
 20
     -107.500075
 30
        0.000000
 11
        4.050000
 21
     -107.500075
 31
        0.000000
  0
LINE
  8
0
 10
        4.050000
 20
     -117.500075
 30
        0.000000
 11
        4.050000
 21
     -107.500075
 31
        0.000000
  0
LINE
  8
0
 10
        4.550000
 20
     -117.000075
 30
        0.000000
 11
        4.550000
 21
     -108.000075
 31
        0.000000
  0
LINE
  8
0
 10
        8.250000
 20
     -117.500075
 30
        0.000000
 11
        8.250000
 21
     -107.500075
 31
        0.000000
  0
LINE
  8
0
 10
        7.750000
 20
     -117.000075
 30
        0.000000
 11
        7.750000
 21
     -108.000075
 31
        0.000000
  0
LINE
  8
0
 10
       -3.650000
 20
      -97.300105
 30
        0.000000
 11
        8.250000
 21
      -97.300105
 31
        0.000000
  0
LINE
  8
0
 10
       -3.650000
 20
      -97.300105
 30
        0.000000
 11
       -3.650000
 21
      -82.700105
 31
        0.000000
  0
LINE
  8
0
 10
       -3.650000
 20
      -82.700105
 30
        0.000000
 11
        8.250000
 21
      -82.700105
 31
        0.000000
  0
ENDSEC
  0
EOF
