  0
SECTION
  2
HEADER
  9
$ACADVER
  1
AC1006
  9
$INSBASE
 10
0.0
 20
0.0
 30
0.0
  9
$EXTMIN
 10
     -134.946747
 20
     -134.946747
  9
$EXTMAX
 10
      539.569519
 20
      539.569519
  9
$LIMMIN
 10
     -134.946747
 20
     -134.946747
  9
$LIMMAX
 10
      539.569519
 20
      539.569519
  9
$VIEWCTR
 10
      202.311386
 20
      202.311386
  9
$ORTHOMODE
 70
     0
  9
$ANGBASE
 50
0.0
  9
$ANGDIR
 70
     0
  9
$SPLINETYPE
 70
     6
  9
$SPLINESEGS
 70
     8
9
$DIMASZ
 40
        6.000000
9
$DIMEXE
 40
        1.500000
9
$DIMEXO
 40
        2.500000
9
$DIMTXT
 40
        5.000000
9
$DIMGAP
 40
        1.500000
9
$DIMTAD
 70
1
9
$DIMTIH
 70
0
9
$DIMTOH
 70
0
  0
ENDSEC
  0
SECTION
  2
TABLES
  0
TABLE
  2
LTYPE
 70
     5
  0
LTYPE
  2
CONTINUOUS
 70
    64
  3
SOLID LINE
 72
    65
 73
     0
 40
0.0
  0
LTYPE
  2
DASHED
 70
    64
  3
-- -- -- -- -- --
 72
    65
 73
     2
 40
  0.75  
 49
  0.50  
 49
 -0.25  
  0
LTYPE
  2
DOT
 70
    64
  3
....................
 72
    65
 73
     2
 40
  0.25  
 49
  0.02  
 49
 -0.23  
  0
LTYPE
  2
CENTER
 70
    64
  3
-- . -- . -- . -- .
 72
    65
 73
    4
 40
  2.00  
 49
  1.25  
 49
 -0.25  
 49
  0.25  
 49
 -0.25  
  0
LTYPE
  2
PHANTOM
 70
    64
  3
-- .. -- .. -- ..
 72
    65
 73
    6
 40
  2.50  
 49
  1.25  
 49
 -0.25  
 49
  0.25  
 49
 -0.25  
 49
  0.25  
 49
 -0.25  
  0
ENDTAB
  0
TABLE
  2
LAYER
 70
     1
  0
LAYER
  2
0
 70
    64
 62
     3
  6
CONTINUOUS
  0
ENDTAB
  0
TABLE
  2
STYLE
 70
     2
  0
STYLE
  2
STANDARD
 70
    64
 40
0.0
 41
1.0
 50
0.0
 71
     0
 42
5.0
  3
ROMANS
  4
BIGFONT
  0
STYLE
  2
BIGFONT
 70
    64
 40
0.0
 41
1.0
 50
0.0
 71
     0
 42
5.0
  3
ROMANS
  4
BIGFONT
  0
ENDTAB
  0
TABLE
  2
VIEW
 70
     0
  0
ENDTAB
  0
TABLE
  2
UCS
 70
     0
  0
ENDTAB
  0
TABLE
  2
DWGMGR
 70
     0
  0
ENDTAB
  0
ENDSEC
  0
SECTION
  2
BLOCKS
  0
BLOCK
  8
0
  2
BLK0001
 70
    64
 10
        0.000000
 20
        0.000000
  0
TEXT
  8
0
 62
  2
 10
      289.481293
 20
      342.193878
 30
        0.000000
 40
        4.175000
  1
２００
 50
       90.000000
 41
        1.000000
 51
        0.000000
  7
BIGFONT
  0
LINE
  8
0
 62
  2
 10
      267.849976
 20
      450.000000
 30
        0.000000
 11
      291.481293
 21
      450.000000
 31
        0.000000
  0
LINE
  8
0
 62
  2
 10
      267.849976
 20
      250.000000
 30
        0.000000
 11
      291.481293
 21
      250.000000
 31
        0.000000
  0
LINE
  8
0
 62
  2
 10
      292.052094
 20
      444.000000
 30
        0.000000
 11
      290.481293
 21
      450.000000
 31
        0.000000
  0
LINE
  8
0
 62
  2
 10
      290.481293
 20
      450.000000
 30
        0.000000
 11
      288.910492
 21
      444.000000
 31
        0.000000
  0
LINE
  8
0
 62
  2
 10
      288.910492
 20
      256.000000
 30
        0.000000
 11
      290.481293
 21
      250.000000
 31
        0.000000
  0
LINE
  8
0
 62
  2
 10
      290.481293
 20
      250.000000
 30
        0.000000
 11
      292.052094
 21
      256.000000
 31
        0.000000
  0
LINE
  8
0
 62
  2
 10
      290.481293
 20
      450.000000
 30
        0.000000
 11
      290.481293
 21
      250.000000
 31
        0.000000
  0
ENDBLK
  0
BLOCK
  8
0
  2
BLK0002
 70
    64
 10
        0.000000
 20
        0.000000
  0
TEXT
  8
0
 62
  2
 10
      300.739014
 20
      342.193878
 30
        0.000000
 40
        4.175000
  1
２５０
 50
       90.000000
 41
        1.000000
 51
        0.000000
  7
BIGFONT
  0
LINE
  8
0
 62
  2
 10
      254.249954
 20
      475.000000
 30
        0.000000
 11
      302.739014
 21
      475.000000
 31
        0.000000
  0
LINE
  8
0
 62
  2
 10
      254.249954
 20
      225.000000
 30
        0.000000
 11
      302.739014
 21
      225.000000
 31
        0.000000
  0
LINE
  8
0
 62
  2
 10
      303.309814
 20
      469.000000
 30
        0.000000
 11
      301.739014
 21
      475.000000
 31
        0.000000
  0
LINE
  8
0
 62
  2
 10
      301.739014
 20
      475.000000
 30
        0.000000
 11
      300.168213
 21
      469.000000
 31
        0.000000
  0
LINE
  8
0
 62
  2
 10
      300.168213
 20
      231.000000
 30
        0.000000
 11
      301.739014
 21
      225.000000
 31
        0.000000
  0
LINE
  8
0
 62
  2
 10
      301.739014
 20
      225.000000
 30
        0.000000
 11
      303.309814
 21
      231.000000
 31
        0.000000
  0
LINE
  8
0
 62
  2
 10
      301.739014
 20
      475.000000
 30
        0.000000
 11
      301.739014
 21
      225.000000
 31
        0.000000
  0
ENDBLK
  0
BLOCK
  8
0
  2
BLK0003
 70
    64
 10
        0.000000
 20
        0.000000
  0
TEXT
  8
0
 62
  2
 10
      111.729904
 20
      208.422241
 30
        0.000000
 40
        4.175000
  1
２９０
 50
        0.000000
 41
        1.000000
 51
        0.000000
  7
BIGFONT
  0
LINE
  8
0
 62
  2
 10
      -26.250000
 20
      245.899994
 30
        0.000000
 11
      -26.250000
 21
      206.422241
 31
        0.000000
  0
LINE
  8
0
 62
  2
 10
      263.749969
 20
      245.899994
 30
        0.000000
 11
      263.749969
 21
      206.422241
 31
        0.000000
  0
LINE
  8
0
 62
  2
 10
      -20.250000
 20
      208.993042
 30
        0.000000
 11
      -26.250000
 21
      207.422241
 31
        0.000000
  0
LINE
  8
0
 62
  2
 10
      -26.250000
 20
      207.422241
 30
        0.000000
 11
      -20.250000
 21
      205.851440
 31
        0.000000
  0
LINE
  8
0
 62
  2
 10
      257.749969
 20
      205.851440
 30
        0.000000
 11
      263.749969
 21
      207.422241
 31
        0.000000
  0
LINE
  8
0
 62
  2
 10
      263.749969
 20
      207.422241
 30
        0.000000
 11
      257.749969
 21
      208.993042
 31
        0.000000
  0
LINE
  8
0
 62
  2
 10
      -26.250000
 20
      207.422241
 30
        0.000000
 11
      263.749969
 21
      207.422241
 31
        0.000000
  0
ENDBLK
  0
BLOCK
  8
0
  2
BLK0004
 70
    64
 10
        0.000000
 20
        0.000000
  0
TEXT
  8
0
 62
  2
 10
      110.613266
 20
      197.209351
 30
        0.000000
 40
        4.175000
  1
３１０
 50
        0.000000
 41
        1.000000
 51
        0.000000
  7
BIGFONT
  0
LINE
  8
0
 62
  2
 10
      -36.250000
 20
      227.699997
 30
        0.000000
 11
      -36.250000
 21
      195.209351
 31
        0.000000
  0
LINE
  8
0
 62
  2
 10
      273.749969
 20
      227.699997
 30
        0.000000
 11
      273.749969
 21
      195.209351
 31
        0.000000
  0
LINE
  8
0
 62
  2
 10
      -30.250000
 20
      197.780151
 30
        0.000000
 11
      -36.250000
 21
      196.209351
 31
        0.000000
  0
LINE
  8
0
 62
  2
 10
      -36.250000
 20
      196.209351
 30
        0.000000
 11
      -30.250000
 21
      194.638550
 31
        0.000000
  0
LINE
  8
0
 62
  2
 10
      267.749969
 20
      194.638550
 30
        0.000000
 11
      273.749969
 21
      196.209351
 31
        0.000000
  0
LINE
  8
0
 62
  2
 10
      273.749969
 20
      196.209351
 30
        0.000000
 11
      267.749969
 21
      197.780151
 31
        0.000000
  0
LINE
  8
0
 62
  2
 10
      -36.250000
 20
      196.209351
 30
        0.000000
 11
      273.749969
 21
      196.209351
 31
        0.000000
  0
ENDBLK
  0
ENDSEC
  0
SECTION
  2
ENTITIES
  0
LINE
  8
0
 10
      253.750061
 20
      524.569507
 30
        0.000000
 11
      251.750061
 21
      522.569507
 31
        0.000000
  0
LINE
  8
0
 10
      273.750061
 20
      539.569507
 30
        0.000000
 11
      273.750061
 21
      534.569507
 31
        0.000000
  0
LINE
  8
0
 10
      253.750061
 20
      534.569507
 30
        0.000000
 11
      273.750061
 21
      534.569507
 31
        0.000000
  0
LINE
  8
0
 10
      266.350098
 20
      522.269306
 30
        0.000000
 11
      265.550049
 21
      522.269306
 31
        0.000000
  0
LINE
  8
0
 10
      266.350098
 20
      532.969501
 30
        0.000000
 11
      266.350098
 21
      522.269306
 31
        0.000000
  0
LINE
  8
0
 10
      259.750061
 20
      525.919452
 30
        0.000000
 11
      259.750061
 21
      522.269306
 31
        0.000000
  0
LINE
  8
0
 10
      259.350098
 20
      532.969501
 30
        0.000000
 11
      259.350098
 21
      525.919452
 31
        0.000000
  0
LINE
  8
0
 10
      266.350098
 20
      525.919452
 30
        0.000000
 11
      259.350098
 21
      525.919452
 31
        0.000000
  0
LINE
  8
0
 10
      265.550049
 20
      523.769306
 30
        0.000000
 11
      265.550049
 21
      522.269306
 31
        0.000000
  0
LINE
  8
0
 10
      260.550049
 20
      523.769306
 30
        0.000000
 11
      260.550049
 21
      522.269306
 31
        0.000000
  0
LINE
  8
0
 10
      265.550049
 20
      523.769306
 30
        0.000000
 11
      260.550049
 21
      523.769306
 31
        0.000000
  0
LINE
  8
0
 10
      264.050049
 20
      523.769306
 30
        0.000000
 11
      264.050049
 21
      522.269306
 31
        0.000000
  0
LINE
  8
0
 10
      262.050049
 20
      523.769306
 30
        0.000000
 11
      262.050049
 21
      522.269306
 31
        0.000000
  0
LINE
  8
0
 10
      264.050049
 20
      522.269306
 30
        0.000000
 11
      262.050049
 21
      522.269306
 31
        0.000000
  0
LINE
  8
0
 10
      260.550049
 20
      522.269306
 30
        0.000000
 11
      259.750061
 21
      522.269306
 31
        0.000000
  0
LINE
  8
0
 10
      253.750061
 20
      535.769520
 30
        0.000000
 11
      -36.249939
 21
      535.769520
 31
        0.000000
  0
LINE
  8
0
 10
      251.750061
 20
      522.569507
 30
        0.000000
 11
      244.500061
 21
      522.569507
 31
        0.000000
  0
TEXT
  8
0
 62
  2
 10
     -108.788335
 20
      467.025910
 30
        0.000000
 40
        5.845000
  1
ＪＷ８ＢＵ
 50
        0.000000
 41
        1.000000
 51
        0.000000
  7
BIGFONT
  0
LINE
  8
0
 10
      273.749961
 20
      121.799957
 30
        0.000000
 11
      273.749961
 21
       73.999969
 31
        0.000000
  0
LINE
  8
0
 10
      -36.250000
 20
      121.799957
 30
        0.000000
 11
      -36.250000
 21
       73.999969
 31
        0.000000
  0
LINE
  8
0
 10
      273.749961
 20
        1.999969
 30
        0.000000
 11
      273.749961
 21
     -121.800003
 31
        0.000000
  0
LINE
  8
0
 10
      -36.250000
 20
      351.999969
 30
        0.000000
 11
      -36.250000
 21
      228.199997
 31
        0.000000
  0
LINE
  8
0
 10
      -36.250000
 20
        1.999969
 30
        0.000000
 11
      -36.250000
 21
     -121.800003
 31
        0.000000
  0
LINE
  8
0
 10
      273.750061
 20
      539.569507
 30
        0.000000
 11
      -36.249939
 21
      539.569507
 31
        0.000000
  0
LINE
  8
0
 10
      253.750061
 20
      539.569507
 30
        0.000000
 11
      253.750061
 21
      524.569507
 31
        0.000000
  0
LINE
  8
0
 10
      -36.250000
 20
      471.799957
 30
        0.000000
 11
      -36.250000
 21
      423.999969
 31
        0.000000
  0
LINE
  8
0
 10
      273.749961
 20
      471.799957
 30
        0.000000
 11
      273.749961
 21
      423.999969
 31
        0.000000
  0
LINE
  8
0
 10
      273.749961
 20
      351.999969
 30
        0.000000
 11
      273.749961
 21
      228.199997
 31
        0.000000
  0
LINE
  8
0
 10
      342.750000
 20
      226.199997
 30
        0.000000
 11
      342.750000
 21
      344.499939
 31
        0.000000
  0
INSERT
  8
0
 62
  5
  2
BLK0001
 10
        0.000000
 20
        0.000000
  0
INSERT
  8
0
 62
  5
  2
BLK0002
 10
        0.000000
 20
        0.000000
  0
INSERT
  8
0
 62
  5
  2
BLK0003
 10
        0.000000
 20
        0.000000
  0
INSERT
  8
0
 62
  5
  2
BLK0004
 10
        0.000000
 20
        0.000000
  0
LINE
  8
0
 10
        6.950062
 20
      521.969562
 30
        0.000000
 11
        6.950062
 21
      522.569507
 31
        0.000000
  0
LINE
  8
0
 10
        6.450062
 20
      521.469440
 30
        0.000000
 11
        6.950062
 21
      521.969562
 31
        0.000000
  0
LINE
  8
0
 10
        3.950062
 20
      521.469501
 30
        0.000000
 11
        3.950062
 21
      527.869526
 31
        0.000000
  0
LINE
  8
0
 10
        6.450062
 20
      521.469501
 30
        0.000000
 11
        1.450062
 21
      521.469501
 31
        0.000000
  0
LINE
  8
0
 10
       -0.099926
 20
      527.869526
 30
        0.000000
 11
       -0.099926
 21
      532.969501
 31
        0.000000
  0
LINE
  8
0
 10
        4.500061
 20
      530.069416
 30
        0.000000
 11
       -0.099926
 21
      530.069416
 31
        0.000000
  0
LINE
  8
0
 10
        1.450062
 20
      521.469440
 30
        0.000000
 11
        0.950062
 21
      521.969562
 31
        0.000000
  0
LINE
  8
0
 10
        0.950062
 20
      521.969562
 30
        0.000000
 11
        0.950062
 21
      527.869526
 31
        0.000000
  0
LINE
  8
0
 10
        3.950062
 20
      527.869526
 30
        0.000000
 11
       -0.099926
 21
      527.869526
 31
        0.000000
  0
LINE
  8
0
 10
      -22.749939
 20
      524.169498
 30
        0.000000
 11
      -22.749939
 21
      523.669498
 31
        0.000000
  0
LINE
  8
0
 10
      -30.749939
 20
      524.169498
 30
        0.000000
 11
      -30.749939
 21
      523.669498
 31
        0.000000
  0
LINE
  8
0
 10
      -22.749939
 20
      523.669498
 30
        0.000000
 11
      -30.749939
 21
      523.669498
 31
        0.000000
  0
LINE
  8
0
 10
      -30.449939
 20
      523.669498
 30
        0.000000
 11
      -30.449939
 21
      522.969501
 31
        0.000000
  0
LINE
  8
0
 10
      -23.049939
 20
      523.669498
 30
        0.000000
 11
      -23.049939
 21
      522.969501
 31
        0.000000
  0
LINE
  8
0
 10
      -23.049939
 20
      522.969501
 30
        0.000000
 11
      -30.449939
 21
      522.969501
 31
        0.000000
  0
ARC
  8
0
 10
      -24.999939
 20
      522.230381
 30
        0.000000
 40
        0.999961
 50
      286.957862
 51
      360.000000
  0
ARC
  8
0
 10
      -28.499939
 20
      522.230381
 30
        0.000000
 40
        1.000000
 50
      180.000015
 51
      253.043024
  0
ARC
  8
0
 10
      -26.749939
 20
      527.969455
 30
        0.000000
 40
        6.999917
 50
      253.042122
 51
      286.957889
  0
LINE
  8
0
 10
      -23.999939
 20
      522.230381
 30
        0.000000
 11
      -23.999939
 21
      522.969517
 31
        0.000000
  0
LINE
  8
0
 10
      -29.499939
 20
      522.230381
 30
        0.000000
 11
      -29.499939
 21
      522.969517
 31
        0.000000
  0
LINE
  8
0
 10
      -20.749941
 20
      524.169498
 30
        0.000000
 11
      -33.249939
 21
      524.169498
 31
        0.000000
  0
LINE
  8
0
 10
      -33.249939
 20
      532.969501
 30
        0.000000
 11
      -33.249939
 21
      516.969501
 31
        0.000000
  0
LINE
  8
0
 10
      -18.249939
 20
      532.969501
 30
        0.000000
 11
      -18.249939
 21
      516.969501
 31
        0.000000
  0
LINE
  8
0
 10
      -20.749941
 20
      524.969501
 30
        0.000000
 11
      -20.749941
 21
      516.969501
 31
        0.000000
  0
LINE
  8
0
 10
      -20.749941
 20
      524.969501
 30
        0.000000
 11
      -33.249939
 21
      524.969501
 31
        0.000000
  0
LINE
  8
0
 10
      -18.249939
 20
      516.969501
 30
        0.000000
 11
      -33.249939
 21
      516.969501
 31
        0.000000
  0
LINE
  8
0
 10
       40.950062
 20
      521.969562
 30
        0.000000
 11
       40.950062
 21
      522.569507
 31
        0.000000
  0
LINE
  8
0
 10
       40.450062
 20
      521.469440
 30
        0.000000
 11
       40.950062
 21
      521.969562
 31
        0.000000
  0
LINE
  8
0
 10
       37.950062
 20
      521.469501
 30
        0.000000
 11
       37.950062
 21
      527.869526
 31
        0.000000
  0
LINE
  8
0
 10
       40.450062
 20
      521.469501
 30
        0.000000
 11
       35.450062
 21
      521.469501
 31
        0.000000
  0
LINE
  8
0
 10
       33.900074
 20
      527.869526
 30
        0.000000
 11
       33.900074
 21
      532.969501
 31
        0.000000
  0
LINE
  8
0
 10
       38.500061
 20
      530.069416
 30
        0.000000
 11
       33.900074
 21
      530.069416
 31
        0.000000
  0
LINE
  8
0
 10
       35.450062
 20
      521.469440
 30
        0.000000
 11
       34.950062
 21
      521.969562
 31
        0.000000
  0
LINE
  8
0
 10
       34.950062
 20
      521.969562
 30
        0.000000
 11
       34.950062
 21
      527.869526
 31
        0.000000
  0
LINE
  8
0
 10
       37.950062
 20
      527.869526
 30
        0.000000
 11
       33.900074
 21
      527.869526
 31
        0.000000
  0
LINE
  8
0
 10
       74.950062
 20
      521.969562
 30
        0.000000
 11
       74.950062
 21
      522.569507
 31
        0.000000
  0
LINE
  8
0
 10
       74.450062
 20
      521.469440
 30
        0.000000
 11
       74.950062
 21
      521.969562
 31
        0.000000
  0
LINE
  8
0
 10
       71.950062
 20
      521.469501
 30
        0.000000
 11
       71.950062
 21
      527.869526
 31
        0.000000
  0
LINE
  8
0
 10
       74.450062
 20
      521.469501
 30
        0.000000
 11
       69.450062
 21
      521.469501
 31
        0.000000
  0
LINE
  8
0
 10
       67.900074
 20
      527.869526
 30
        0.000000
 11
       67.900074
 21
      532.969501
 31
        0.000000
  0
LINE
  8
0
 10
       72.500061
 20
      530.069416
 30
        0.000000
 11
       67.900074
 21
      530.069416
 31
        0.000000
  0
LINE
  8
0
 10
       69.450062
 20
      521.469440
 30
        0.000000
 11
       68.950062
 21
      521.969562
 31
        0.000000
  0
LINE
  8
0
 10
       68.950062
 20
      521.969562
 30
        0.000000
 11
       68.950062
 21
      527.869526
 31
        0.000000
  0
LINE
  8
0
 10
       71.950062
 20
      527.869526
 30
        0.000000
 11
       67.900074
 21
      527.869526
 31
        0.000000
  0
LINE
  8
0
 10
      108.950062
 20
      521.969562
 30
        0.000000
 11
      108.950062
 21
      522.569507
 31
        0.000000
  0
LINE
  8
0
 10
      108.450062
 20
      521.469440
 30
        0.000000
 11
      108.950062
 21
      521.969562
 31
        0.000000
  0
LINE
  8
0
 10
      105.950062
 20
      521.469501
 30
        0.000000
 11
      105.950062
 21
      527.869526
 31
        0.000000
  0
LINE
  8
0
 10
      108.450062
 20
      521.469501
 30
        0.000000
 11
      103.450062
 21
      521.469501
 31
        0.000000
  0
LINE
  8
0
 10
      101.900074
 20
      527.869526
 30
        0.000000
 11
      101.900074
 21
      532.969501
 31
        0.000000
  0
LINE
  8
0
 10
      106.500061
 20
      530.069416
 30
        0.000000
 11
      101.900074
 21
      530.069416
 31
        0.000000
  0
LINE
  8
0
 10
      103.450062
 20
      521.469440
 30
        0.000000
 11
      102.950062
 21
      521.969562
 31
        0.000000
  0
LINE
  8
0
 10
      102.950062
 20
      521.969562
 30
        0.000000
 11
      102.950062
 21
      527.869526
 31
        0.000000
  0
LINE
  8
0
 10
      105.950062
 20
      527.869526
 30
        0.000000
 11
      101.900074
 21
      527.869526
 31
        0.000000
  0
LINE
  8
0
 10
      142.950062
 20
      521.969562
 30
        0.000000
 11
      142.950062
 21
      522.569507
 31
        0.000000
  0
LINE
  8
0
 10
      142.450062
 20
      521.469440
 30
        0.000000
 11
      142.950062
 21
      521.969562
 31
        0.000000
  0
LINE
  8
0
 10
      139.950062
 20
      521.469501
 30
        0.000000
 11
      139.950062
 21
      527.869526
 31
        0.000000
  0
LINE
  8
0
 10
      142.450062
 20
      521.469501
 30
        0.000000
 11
      137.450062
 21
      521.469501
 31
        0.000000
  0
LINE
  8
0
 10
      135.900074
 20
      527.869526
 30
        0.000000
 11
      135.900074
 21
      532.969501
 31
        0.000000
  0
LINE
  8
0
 10
      140.500061
 20
      530.069416
 30
        0.000000
 11
      135.900074
 21
      530.069416
 31
        0.000000
  0
LINE
  8
0
 10
      137.450062
 20
      521.469440
 30
        0.000000
 11
      136.950062
 21
      521.969562
 31
        0.000000
  0
LINE
  8
0
 10
      136.950062
 20
      521.969562
 30
        0.000000
 11
      136.950062
 21
      527.869526
 31
        0.000000
  0
LINE
  8
0
 10
      139.950062
 20
      527.869526
 30
        0.000000
 11
      135.900074
 21
      527.869526
 31
        0.000000
  0
LINE
  8
0
 10
      176.950062
 20
      521.969562
 30
        0.000000
 11
      176.950062
 21
      522.569507
 31
        0.000000
  0
LINE
  8
0
 10
      176.450062
 20
      521.469440
 30
        0.000000
 11
      176.950062
 21
      521.969562
 31
        0.000000
  0
LINE
  8
0
 10
      173.950062
 20
      521.469501
 30
        0.000000
 11
      173.950062
 21
      527.869526
 31
        0.000000
  0
LINE
  8
0
 10
      176.450062
 20
      521.469501
 30
        0.000000
 11
      171.450062
 21
      521.469501
 31
        0.000000
  0
LINE
  8
0
 10
      169.900074
 20
      527.869526
 30
        0.000000
 11
      169.900074
 21
      532.969501
 31
        0.000000
  0
LINE
  8
0
 10
      174.500061
 20
      530.069416
 30
        0.000000
 11
      169.900074
 21
      530.069416
 31
        0.000000
  0
LINE
  8
0
 10
      171.450062
 20
      521.469440
 30
        0.000000
 11
      170.950062
 21
      521.969562
 31
        0.000000
  0
LINE
  8
0
 10
      170.950062
 20
      521.969562
 30
        0.000000
 11
      170.950062
 21
      527.869526
 31
        0.000000
  0
LINE
  8
0
 10
      173.950062
 20
      527.869526
 30
        0.000000
 11
      169.900074
 21
      527.869526
 31
        0.000000
  0
LINE
  8
0
 10
      210.950062
 20
      521.969562
 30
        0.000000
 11
      210.950062
 21
      522.569507
 31
        0.000000
  0
LINE
  8
0
 10
      210.450062
 20
      521.469440
 30
        0.000000
 11
      210.950062
 21
      521.969562
 31
        0.000000
  0
LINE
  8
0
 10
      207.950062
 20
      521.469501
 30
        0.000000
 11
      207.950062
 21
      527.869526
 31
        0.000000
  0
LINE
  8
0
 10
      210.450062
 20
      521.469501
 30
        0.000000
 11
      205.450062
 21
      521.469501
 31
        0.000000
  0
LINE
  8
0
 10
      203.900074
 20
      527.869526
 30
        0.000000
 11
      203.900074
 21
      532.969501
 31
        0.000000
  0
LINE
  8
0
 10
      208.500061
 20
      530.069416
 30
        0.000000
 11
      203.900074
 21
      530.069416
 31
        0.000000
  0
LINE
  8
0
 10
      205.450062
 20
      521.469440
 30
        0.000000
 11
      204.950062
 21
      521.969562
 31
        0.000000
  0
LINE
  8
0
 10
      204.950062
 20
      521.969562
 30
        0.000000
 11
      204.950062
 21
      527.869526
 31
        0.000000
  0
LINE
  8
0
 10
      207.950062
 20
      527.869526
 30
        0.000000
 11
      203.900074
 21
      527.869526
 31
        0.000000
  0
LINE
  8
0
 10
      244.950062
 20
      521.969562
 30
        0.000000
 11
      244.950062
 21
      522.569507
 31
        0.000000
  0
LINE
  8
0
 10
      244.450062
 20
      521.469440
 30
        0.000000
 11
      244.950062
 21
      521.969562
 31
        0.000000
  0
LINE
  8
0
 10
      241.950062
 20
      521.469501
 30
        0.000000
 11
      241.950062
 21
      527.869526
 31
        0.000000
  0
LINE
  8
0
 10
      244.450062
 20
      521.469501
 30
        0.000000
 11
      239.450062
 21
      521.469501
 31
        0.000000
  0
LINE
  8
0
 10
      237.900074
 20
      527.869526
 30
        0.000000
 11
      237.900074
 21
      532.969501
 31
        0.000000
  0
LINE
  8
0
 10
      242.500061
 20
      530.069416
 30
        0.000000
 11
      237.900074
 21
      530.069416
 31
        0.000000
  0
LINE
  8
0
 10
      239.450062
 20
      521.469440
 30
        0.000000
 11
      238.950062
 21
      521.969562
 31
        0.000000
  0
LINE
  8
0
 10
      238.950062
 20
      521.969562
 30
        0.000000
 11
      238.950062
 21
      527.869526
 31
        0.000000
  0
LINE
  8
0
 10
      241.950062
 20
      527.869526
 30
        0.000000
 11
      237.900074
 21
      527.869526
 31
        0.000000
  0
LINE
  8
0
 10
       -4.499939
 20
      534.569507
 30
        0.000000
 11
        4.500061
 21
      534.569507
 31
        0.000000
  0
LINE
  8
0
 10
      -36.249939
 20
      534.569507
 30
        0.000000
 11
      -16.249939
 21
      534.569507
 31
        0.000000
  0
LINE
  8
0
 10
      -36.249939
 20
      539.569507
 30
        0.000000
 11
      -36.249939
 21
      534.569507
 31
        0.000000
  0
LINE
  8
0
 10
       -6.499939
 20
      522.569507
 30
        0.000000
 11
      -14.250000
 21
      522.569507
 31
        0.000000
  0
LINE
  8
0
 10
      -16.249939
 20
      539.569507
 30
        0.000000
 11
      -16.249939
 21
      524.569507
 31
        0.000000
  0
LINE
  8
0
 10
      -16.249939
 20
      524.569507
 30
        0.000000
 11
      -14.250000
 21
      522.569507
 31
        0.000000
  0
LINE
  8
0
 10
      233.500061
 20
      534.569507
 30
        0.000000
 11
      242.500061
 21
      534.569507
 31
        0.000000
  0
LINE
  8
0
 10
      199.500061
 20
      534.569507
 30
        0.000000
 11
      208.500061
 21
      534.569507
 31
        0.000000
  0
LINE
  8
0
 10
      231.500061
 20
      522.569507
 30
        0.000000
 11
      210.500061
 21
      522.569507
 31
        0.000000
  0
LINE
  8
0
 10
      197.500061
 20
      522.569507
 30
        0.000000
 11
      176.500061
 21
      522.569507
 31
        0.000000
  0
LINE
  8
0
 10
      165.500061
 20
      534.569507
 30
        0.000000
 11
      174.500061
 21
      534.569507
 31
        0.000000
  0
LINE
  8
0
 10
      131.500061
 20
      534.569507
 30
        0.000000
 11
      140.500061
 21
      534.569507
 31
        0.000000
  0
LINE
  8
0
 10
      163.500061
 20
      522.569507
 30
        0.000000
 11
      142.500061
 21
      522.569507
 31
        0.000000
  0
LINE
  8
0
 10
      129.500061
 20
      522.569507
 30
        0.000000
 11
      108.500061
 21
      522.569507
 31
        0.000000
  0
LINE
  8
0
 10
       97.500061
 20
      534.569507
 30
        0.000000
 11
      106.500061
 21
      534.569507
 31
        0.000000
  0
LINE
  8
0
 10
       63.500061
 20
      534.569507
 30
        0.000000
 11
       72.500061
 21
      534.569507
 31
        0.000000
  0
LINE
  8
0
 10
       29.500061
 20
      534.569507
 30
        0.000000
 11
       38.500061
 21
      534.569507
 31
        0.000000
  0
LINE
  8
0
 10
       97.500061
 20
      534.569507
 30
        0.000000
 11
       97.500061
 21
      535.769520
 31
        0.000000
  0
LINE
  8
0
 10
       97.500061
 20
      524.569507
 30
        0.000000
 11
       97.500061
 21
      534.569507
 31
        0.000000
  0
LINE
  8
0
 10
       72.500061
 20
      534.569507
 30
        0.000000
 11
       72.500061
 21
      535.769520
 31
        0.000000
  0
LINE
  8
0
 10
       72.500061
 20
      524.569507
 30
        0.000000
 11
       72.500061
 21
      534.569507
 31
        0.000000
  0
LINE
  8
0
 10
       63.500061
 20
      534.569507
 30
        0.000000
 11
       63.500061
 21
      535.769520
 31
        0.000000
  0
LINE
  8
0
 10
       63.500061
 20
      524.569507
 30
        0.000000
 11
       63.500061
 21
      534.569507
 31
        0.000000
  0
LINE
  8
0
 10
       38.500061
 20
      534.569507
 30
        0.000000
 11
       38.500061
 21
      535.769520
 31
        0.000000
  0
LINE
  8
0
 10
       38.500061
 20
      524.569507
 30
        0.000000
 11
       38.500061
 21
      534.569507
 31
        0.000000
  0
LINE
  8
0
 10
       95.500061
 20
      522.569507
 30
        0.000000
 11
       74.500061
 21
      522.569507
 31
        0.000000
  0
LINE
  8
0
 10
       61.500061
 20
      522.569507
 30
        0.000000
 11
       40.500061
 21
      522.569507
 31
        0.000000
  0
LINE
  8
0
 10
       27.500061
 20
      522.569507
 30
        0.000000
 11
        6.500061
 21
      522.569507
 31
        0.000000
  0
LINE
  8
0
 10
      233.500061
 20
      524.569507
 30
        0.000000
 11
      233.500061
 21
      535.769520
 31
        0.000000
  0
LINE
  8
0
 10
      242.500061
 20
      524.569507
 30
        0.000000
 11
      242.500061
 21
      535.769520
 31
        0.000000
  0
LINE
  8
0
 10
      242.500061
 20
      524.569507
 30
        0.000000
 11
      244.500061
 21
      522.569507
 31
        0.000000
  0
LINE
  8
0
 10
      233.500061
 20
      524.569507
 30
        0.000000
 11
      231.500061
 21
      522.569507
 31
        0.000000
  0
LINE
  8
0
 10
      199.500061
 20
      524.569507
 30
        0.000000
 11
      199.500061
 21
      535.769520
 31
        0.000000
  0
LINE
  8
0
 10
      208.500061
 20
      524.569507
 30
        0.000000
 11
      208.500061
 21
      535.769520
 31
        0.000000
  0
LINE
  8
0
 10
      208.500061
 20
      524.569507
 30
        0.000000
 11
      210.500061
 21
      522.569507
 31
        0.000000
  0
LINE
  8
0
 10
      199.500061
 20
      524.569507
 30
        0.000000
 11
      197.500061
 21
      522.569507
 31
        0.000000
  0
LINE
  8
0
 10
      165.500061
 20
      524.569507
 30
        0.000000
 11
      165.500061
 21
      535.769520
 31
        0.000000
  0
LINE
  8
0
 10
      174.500061
 20
      524.569507
 30
        0.000000
 11
      174.500061
 21
      535.769520
 31
        0.000000
  0
LINE
  8
0
 10
      174.500061
 20
      524.569507
 30
        0.000000
 11
      176.500061
 21
      522.569507
 31
        0.000000
  0
LINE
  8
0
 10
      165.500061
 20
      524.569507
 30
        0.000000
 11
      163.500061
 21
      522.569507
 31
        0.000000
  0
LINE
  8
0
 10
      131.500061
 20
      524.569507
 30
        0.000000
 11
      131.500061
 21
      535.769520
 31
        0.000000
  0
LINE
  8
0
 10
      140.500061
 20
      524.569507
 30
        0.000000
 11
      140.500061
 21
      535.769520
 31
        0.000000
  0
LINE
  8
0
 10
      140.500061
 20
      524.569507
 30
        0.000000
 11
      142.500061
 21
      522.569507
 31
        0.000000
  0
LINE
  8
0
 10
      131.500061
 20
      524.569507
 30
        0.000000
 11
      129.500061
 21
      522.569507
 31
        0.000000
  0
LINE
  8
0
 10
      106.500061
 20
      524.569507
 30
        0.000000
 11
      106.500061
 21
      535.769520
 31
        0.000000
  0
LINE
  8
0
 10
      106.500061
 20
      524.569507
 30
        0.000000
 11
      108.500061
 21
      522.569507
 31
        0.000000
  0
LINE
  8
0
 10
       97.500061
 20
      524.569507
 30
        0.000000
 11
       95.500061
 21
      522.569507
 31
        0.000000
  0
LINE
  8
0
 10
       72.500061
 20
      524.569507
 30
        0.000000
 11
       74.500061
 21
      522.569507
 31
        0.000000
  0
LINE
  8
0
 10
       63.500061
 20
      524.569507
 30
        0.000000
 11
       61.500061
 21
      522.569507
 31
        0.000000
  0
LINE
  8
0
 10
       29.500061
 20
      524.569507
 30
        0.000000
 11
       29.500061
 21
      535.769520
 31
        0.000000
  0
LINE
  8
0
 10
       38.500061
 20
      524.569507
 30
        0.000000
 11
       40.500061
 21
      522.569507
 31
        0.000000
  0
LINE
  8
0
 10
       29.500061
 20
      524.569507
 30
        0.000000
 11
       27.500061
 21
      522.569507
 31
        0.000000
  0
LINE
  8
0
 10
       -4.499939
 20
      524.569507
 30
        0.000000
 11
       -4.499939
 21
      535.769520
 31
        0.000000
  0
LINE
  8
0
 10
        4.500061
 20
      524.569507
 30
        0.000000
 11
        4.500061
 21
      535.769520
 31
        0.000000
  0
LINE
  8
0
 10
        4.500061
 20
      524.569507
 30
        0.000000
 11
        6.500061
 21
      522.569507
 31
        0.000000
  0
LINE
  8
0
 10
       -4.499939
 20
      524.569507
 30
        0.000000
 11
       -6.499939
 21
      522.569507
 31
        0.000000
  0
LINE
  8
0
 10
      235.250061
 20
      536.769520
 30
        0.000000
 11
      235.250061
 21
      535.769520
 31
        0.000000
  0
LINE
  8
0
 10
      240.250061
 20
      536.769520
 30
        0.000000
 11
      240.250061
 21
      535.769520
 31
        0.000000
  0
LINE
  8
0
 10
      240.250061
 20
      536.769520
 30
        0.000000
 11
      235.250061
 21
      536.769520
 31
        0.000000
  0
LINE
  8
0
 10
      201.250061
 20
      536.769520
 30
        0.000000
 11
      201.250061
 21
      535.769520
 31
        0.000000
  0
LINE
  8
0
 10
      206.250061
 20
      536.769520
 30
        0.000000
 11
      206.250061
 21
      535.769520
 31
        0.000000
  0
LINE
  8
0
 10
      206.250061
 20
      536.769520
 30
        0.000000
 11
      201.250061
 21
      536.769520
 31
        0.000000
  0
LINE
  8
0
 10
      167.250061
 20
      536.769520
 30
        0.000000
 11
      167.250061
 21
      535.769520
 31
        0.000000
  0
LINE
  8
0
 10
      172.250061
 20
      536.769520
 30
        0.000000
 11
      172.250061
 21
      535.769520
 31
        0.000000
  0
LINE
  8
0
 10
      172.250061
 20
      536.769520
 30
        0.000000
 11
      167.250061
 21
      536.769520
 31
        0.000000
  0
LINE
  8
0
 10
      133.250061
 20
      536.769520
 30
        0.000000
 11
      133.250061
 21
      535.769520
 31
        0.000000
  0
LINE
  8
0
 10
      138.250061
 20
      536.769520
 30
        0.000000
 11
      138.250061
 21
      535.769520
 31
        0.000000
  0
LINE
  8
0
 10
      138.250061
 20
      536.769520
 30
        0.000000
 11
      133.250061
 21
      536.769520
 31
        0.000000
  0
LINE
  8
0
 10
       99.250061
 20
      536.769520
 30
        0.000000
 11
       99.250061
 21
      535.769520
 31
        0.000000
  0
LINE
  8
0
 10
      104.250061
 20
      536.769520
 30
        0.000000
 11
      104.250061
 21
      535.769520
 31
        0.000000
  0
LINE
  8
0
 10
      104.250061
 20
      536.769520
 30
        0.000000
 11
       99.250061
 21
      536.769520
 31
        0.000000
  0
LINE
  8
0
 10
       65.250061
 20
      536.769520
 30
        0.000000
 11
       65.250061
 21
      535.769520
 31
        0.000000
  0
LINE
  8
0
 10
       70.250061
 20
      536.769520
 30
        0.000000
 11
       70.250061
 21
      535.769520
 31
        0.000000
  0
LINE
  8
0
 10
       70.250061
 20
      536.769520
 30
        0.000000
 11
       65.250061
 21
      536.769520
 31
        0.000000
  0
LINE
  8
0
 10
       31.250061
 20
      536.769520
 30
        0.000000
 11
       31.250061
 21
      535.769520
 31
        0.000000
  0
LINE
  8
0
 10
       36.250061
 20
      536.769520
 30
        0.000000
 11
       36.250061
 21
      535.769520
 31
        0.000000
  0
LINE
  8
0
 10
       36.250061
 20
      536.769520
 30
        0.000000
 11
       31.250061
 21
      536.769520
 31
        0.000000
  0
LINE
  8
0
 10
       -2.749939
 20
      536.769520
 30
        0.000000
 11
       -2.749939
 21
      535.769520
 31
        0.000000
  0
LINE
  8
0
 10
        2.250061
 20
      536.769520
 30
        0.000000
 11
        2.250061
 21
      535.769520
 31
        0.000000
  0
LINE
  8
0
 10
        2.250061
 20
      536.769520
 30
        0.000000
 11
       -2.749939
 21
      536.769520
 31
        0.000000
  0
LINE
  8
0
 10
      -34.249939
 20
      534.569507
 30
        0.000000
 11
      -34.249939
 21
      532.969501
 31
        0.000000
  0
LINE
  8
0
 10
      242.500061
 20
      532.969501
 30
        0.000000
 11
      233.500061
 21
      532.969501
 31
        0.000000
  0
LINE
  8
0
 10
      208.500061
 20
      532.969501
 30
        0.000000
 11
      199.500061
 21
      532.969501
 31
        0.000000
  0
LINE
  8
0
 10
      174.500061
 20
      532.969501
 30
        0.000000
 11
      165.500061
 21
      532.969501
 31
        0.000000
  0
LINE
  8
0
 10
      140.500061
 20
      532.969501
 30
        0.000000
 11
      131.500061
 21
      532.969501
 31
        0.000000
  0
LINE
  8
0
 10
      106.500061
 20
      532.969501
 30
        0.000000
 11
       97.500061
 21
      532.969501
 31
        0.000000
  0
LINE
  8
0
 10
       72.500061
 20
      532.969501
 30
        0.000000
 11
       63.500061
 21
      532.969501
 31
        0.000000
  0
LINE
  8
0
 10
       38.500061
 20
      532.969501
 30
        0.000000
 11
       29.500061
 21
      532.969501
 31
        0.000000
  0
LINE
  8
0
 10
        4.500061
 20
      532.969501
 30
        0.000000
 11
       -4.499939
 21
      532.969501
 31
        0.000000
  0
LINE
  8
0
 10
      -16.249939
 20
      532.969501
 30
        0.000000
 11
      -34.249939
 21
      532.969501
 31
        0.000000
  0
LINE
  8
0
 10
      254.750000
 20
      125.000000
 30
        0.000000
 11
      221.250000
 21
      125.000000
 31
        0.000000
  0
LINE
  8
0
 10
      221.250000
 20
      125.000000
 30
        0.000000
 11
      221.250000
 21
     -125.000000
 31
        0.000000
  0
LINE
  8
0
 10
      254.750000
 20
     -125.000000
 30
        0.000000
 11
      221.250000
 21
     -125.000000
 31
        0.000000
  0
LINE
  8
0
 10
      254.750000
 20
      125.000000
 30
        0.000000
 11
      254.750000
 21
     -125.000000
 31
        0.000000
  0
LINE
  8
0
 10
      220.750000
 20
      125.000000
 30
        0.000000
 11
      187.250000
 21
      125.000000
 31
        0.000000
  0
LINE
  8
0
 10
      187.250000
 20
      125.000000
 30
        0.000000
 11
      187.250000
 21
     -125.000000
 31
        0.000000
  0
LINE
  8
0
 10
      220.750000
 20
     -125.000000
 30
        0.000000
 11
      187.250000
 21
     -125.000000
 31
        0.000000
  0
LINE
  8
0
 10
      220.750000
 20
      125.000000
 30
        0.000000
 11
      220.750000
 21
     -125.000000
 31
        0.000000
  0
LINE
  8
0
 10
      186.750000
 20
      125.000000
 30
        0.000000
 11
      153.250000
 21
      125.000000
 31
        0.000000
  0
LINE
  8
0
 10
      153.250000
 20
      125.000000
 30
        0.000000
 11
      153.250000
 21
     -125.000000
 31
        0.000000
  0
LINE
  8
0
 10
      186.750000
 20
     -125.000000
 30
        0.000000
 11
      153.250000
 21
     -125.000000
 31
        0.000000
  0
LINE
  8
0
 10
      186.750000
 20
      125.000000
 30
        0.000000
 11
      186.750000
 21
     -125.000000
 31
        0.000000
  0
LINE
  8
0
 10
      152.750000
 20
      125.000000
 30
        0.000000
 11
      119.250000
 21
      125.000000
 31
        0.000000
  0
LINE
  8
0
 10
      119.250000
 20
      125.000000
 30
        0.000000
 11
      119.250000
 21
     -125.000000
 31
        0.000000
  0
LINE
  8
0
 10
      152.750000
 20
     -125.000000
 30
        0.000000
 11
      119.250000
 21
     -125.000000
 31
        0.000000
  0
LINE
  8
0
 10
      152.750000
 20
      125.000000
 30
        0.000000
 11
      152.750000
 21
     -125.000000
 31
        0.000000
  0
LINE
  8
0
 10
      118.750000
 20
      125.000000
 30
        0.000000
 11
       85.250000
 21
      125.000000
 31
        0.000000
  0
LINE
  8
0
 10
       85.250000
 20
      125.000000
 30
        0.000000
 11
       85.250000
 21
     -125.000000
 31
        0.000000
  0
LINE
  8
0
 10
      118.750000
 20
     -125.000000
 30
        0.000000
 11
       85.250000
 21
     -125.000000
 31
        0.000000
  0
LINE
  8
0
 10
      118.750000
 20
      125.000000
 30
        0.000000
 11
      118.750000
 21
     -125.000000
 31
        0.000000
  0
LINE
  8
0
 10
       84.750000
 20
      125.000000
 30
        0.000000
 11
       51.250000
 21
      125.000000
 31
        0.000000
  0
LINE
  8
0
 10
       51.250000
 20
      125.000000
 30
        0.000000
 11
       51.250000
 21
     -125.000000
 31
        0.000000
  0
LINE
  8
0
 10
       84.750000
 20
     -125.000000
 30
        0.000000
 11
       51.250000
 21
     -125.000000
 31
        0.000000
  0
LINE
  8
0
 10
       84.750000
 20
      125.000000
 30
        0.000000
 11
       84.750000
 21
     -125.000000
 31
        0.000000
  0
LINE
  8
0
 10
       50.750000
 20
      125.000000
 30
        0.000000
 11
       17.250000
 21
      125.000000
 31
        0.000000
  0
LINE
  8
0
 10
       17.250000
 20
      125.000000
 30
        0.000000
 11
       17.250000
 21
     -125.000000
 31
        0.000000
  0
LINE
  8
0
 10
       50.750000
 20
     -125.000000
 30
        0.000000
 11
       17.250000
 21
     -125.000000
 31
        0.000000
  0
LINE
  8
0
 10
       50.750000
 20
      125.000000
 30
        0.000000
 11
       50.750000
 21
     -125.000000
 31
        0.000000
  0
LINE
  8
0
 10
       16.750000
 20
      125.000000
 30
        0.000000
 11
      -16.750000
 21
      125.000000
 31
        0.000000
  0
LINE
  8
0
 10
      -16.750000
 20
      125.000000
 30
        0.000000
 11
      -16.750000
 21
     -125.000000
 31
        0.000000
  0
LINE
  8
0
 10
       16.750000
 20
     -125.000000
 30
        0.000000
 11
      -16.750000
 21
     -125.000000
 31
        0.000000
  0
LINE
  8
0
 10
       16.750000
 20
      125.000000
 30
        0.000000
 11
       16.750000
 21
     -125.000000
 31
        0.000000
  0
LINE
  8
0
 10
      247.119995
 20
      336.099970
 30
        0.000000
 11
       32.119995
 21
      336.099970
 31
        0.000000
  0
LINE
  8
0
 10
      247.119995
 20
      250.899963
 30
        0.000000
 11
       32.119995
 21
      250.899963
 31
        0.000000
  0
LINE
  8
0
 10
      247.119995
 20
      336.099970
 30
        0.000000
 11
      247.119995
 21
      250.899963
 31
        0.000000
  0
CIRCLE
  8
0
 10
      241.119995
 20
      338.500000
 30
        0.000000
 40
        1.000000
  0
CIRCLE
  8
0
 10
      241.119995
 20
      338.500000
 30
        0.000000
 40
        1.300000
  0
CIRCLE
  8
0
 10
      241.119995
 20
      248.499933
 30
        0.000000
 40
        1.300000
  0
CIRCLE
  8
0
 10
      241.119995
 20
      248.499933
 30
        0.000000
 40
        1.000000
  0
CIRCLE
  8
0
 10
      207.119995
 20
      248.499933
 30
        0.000000
 40
        1.000000
  0
CIRCLE
  8
0
 10
      207.119995
 20
      248.499933
 30
        0.000000
 40
        1.300000
  0
CIRCLE
  8
0
 10
      207.119995
 20
      338.500000
 30
        0.000000
 40
        1.300000
  0
CIRCLE
  8
0
 10
      207.119995
 20
      338.500000
 30
        0.000000
 40
        1.000000
  0
LINE
  8
0
 10
      241.949982
 20
      359.299896
 30
        0.000000
 11
      241.949982
 21
      358.199921
 31
        0.000000
  0
LINE
  8
0
 10
      241.949982
 20
      417.799957
 30
        0.000000
 11
      241.949982
 21
      416.699921
 31
        0.000000
  0
LINE
  8
0
 10
      241.949982
 20
      359.299896
 30
        0.000000
 11
      238.949982
 21
      359.299896
 31
        0.000000
  0
LINE
  8
0
 10
      241.949982
 20
      416.699921
 30
        0.000000
 11
      238.949982
 21
      416.699921
 31
        0.000000
  0
LINE
  8
0
 10
      243.999985
 20
      417.799957
 30
        0.000000
 11
      243.999985
 21
      422.799957
 31
        0.000000
  0
LINE
  8
0
 10
      243.999985
 20
      353.199921
 30
        0.000000
 11
      243.999985
 21
      358.199921
 31
        0.000000
  0
CIRCLE
  8
0
 10
      240.979980
 20
      420.299957
 30
        0.000000
 40
        1.400009
  0
CIRCLE
  8
0
 10
      240.979980
 20
      355.699921
 30
        0.000000
 40
        1.400009
  0
LINE
  8
0
 10
      244.949982
 20
      417.799957
 30
        0.000000
 11
      241.949982
 21
      417.799957
 31
        0.000000
  0
LINE
  8
0
 10
      244.949982
 20
      358.199921
 30
        0.000000
 11
      241.949982
 21
      358.199921
 31
        0.000000
  0
LINE
  8
0
 10
      238.949982
 20
      359.299896
 30
        0.000000
 11
      238.949982
 21
      416.699921
 31
        0.000000
  0
LINE
  8
0
 10
      244.949982
 20
      358.199921
 30
        0.000000
 11
      244.949982
 21
      417.799957
 31
        0.000000
  0
LINE
  8
0
 10
      237.899979
 20
      353.199921
 30
        0.000000
 11
      237.899979
 21
      422.799957
 31
        0.000000
  0
LINE
  8
0
 10
      245.999985
 20
      353.199921
 30
        0.000000
 11
      245.999985
 21
      422.799957
 31
        0.000000
  0
LINE
  8
0
 10
      245.999985
 20
      353.199921
 30
        0.000000
 11
      237.899979
 21
      353.199921
 31
        0.000000
  0
LINE
  8
0
 10
      245.999985
 20
      422.799957
 30
        0.000000
 11
      237.899979
 21
      422.799957
 31
        0.000000
  0
LINE
  8
0
 10
      211.999985
 20
      422.799957
 30
        0.000000
 11
      203.899979
 21
      422.799957
 31
        0.000000
  0
LINE
  8
0
 10
      211.999985
 20
      353.199921
 30
        0.000000
 11
      203.899979
 21
      353.199921
 31
        0.000000
  0
LINE
  8
0
 10
      211.999985
 20
      353.199921
 30
        0.000000
 11
      211.999985
 21
      422.799957
 31
        0.000000
  0
LINE
  8
0
 10
      203.899979
 20
      353.199921
 30
        0.000000
 11
      203.899979
 21
      422.799957
 31
        0.000000
  0
LINE
  8
0
 10
      210.949982
 20
      358.199921
 30
        0.000000
 11
      210.949982
 21
      417.799957
 31
        0.000000
  0
LINE
  8
0
 10
      204.949982
 20
      359.299896
 30
        0.000000
 11
      204.949982
 21
      416.699921
 31
        0.000000
  0
LINE
  8
0
 10
      210.949982
 20
      358.199921
 30
        0.000000
 11
      207.949982
 21
      358.199921
 31
        0.000000
  0
LINE
  8
0
 10
      210.949982
 20
      417.799957
 30
        0.000000
 11
      207.949982
 21
      417.799957
 31
        0.000000
  0
CIRCLE
  8
0
 10
      206.979980
 20
      355.699921
 30
        0.000000
 40
        1.400009
  0
CIRCLE
  8
0
 10
      206.979980
 20
      420.299957
 30
        0.000000
 40
        1.400009
  0
LINE
  8
0
 10
      209.999985
 20
      353.199921
 30
        0.000000
 11
      209.999985
 21
      358.199921
 31
        0.000000
  0
LINE
  8
0
 10
      209.999985
 20
      417.799957
 30
        0.000000
 11
      209.999985
 21
      422.799957
 31
        0.000000
  0
LINE
  8
0
 10
      207.949982
 20
      416.699921
 30
        0.000000
 11
      204.949982
 21
      416.699921
 31
        0.000000
  0
LINE
  8
0
 10
      207.949982
 20
      359.299896
 30
        0.000000
 11
      204.949982
 21
      359.299896
 31
        0.000000
  0
LINE
  8
0
 10
      207.949982
 20
      417.799957
 30
        0.000000
 11
      207.949982
 21
      416.699921
 31
        0.000000
  0
LINE
  8
0
 10
      207.949982
 20
      359.299896
 30
        0.000000
 11
      207.949982
 21
      358.199921
 31
        0.000000
  0
LINE
  8
0
 10
      242.500000
 20
      473.800003
 30
        0.000000
 11
      242.500000
 21
      475.000000
 31
        0.000000
  0
LINE
  8
0
 10
      242.500000
 20
      225.000000
 30
        0.000000
 11
      242.500000
 21
      226.199997
 31
        0.000000
  0
CIRCLE
  8
0
 10
      226.750000
 20
      230.000000
 30
        0.000000
 40
        2.000000
  0
CIRCLE
  8
0
 10
      226.750000
 20
      230.000000
 30
        0.000000
 40
        1.500000
  0
LINE
  8
0
 10
      233.500000
 20
      225.000000
 30
        0.000000
 11
      208.500000
 21
      225.000000
 31
        0.000000
  0
LINE
  8
0
 10
      208.500000
 20
      225.000000
 30
        0.000000
 11
      208.500000
 21
      226.199997
 31
        0.000000
  0
LINE
  8
0
 10
      233.500000
 20
      225.000000
 30
        0.000000
 11
      233.500000
 21
      226.199997
 31
        0.000000
  0
LINE
  8
0
 10
      208.500000
 20
      473.800003
 30
        0.000000
 11
      208.500000
 21
      475.000000
 31
        0.000000
  0
CIRCLE
  8
0
 10
      237.750000
 20
      470.000000
 30
        0.000000
 40
        2.000000
  0
CIRCLE
  8
0
 10
      237.750000
 20
      470.000000
 30
        0.000000
 40
        1.500000
  0
LINE
  8
0
 10
      233.500000
 20
      475.000000
 30
        0.000000
 11
      208.500000
 21
      475.000000
 31
        0.000000
  0
LINE
  8
0
 10
      233.500000
 20
      473.800003
 30
        0.000000
 11
      233.500000
 21
      475.000000
 31
        0.000000
  0
LINE
  8
0
 10
      199.500000
 20
      473.800003
 30
        0.000000
 11
      199.500000
 21
      475.000000
 31
        0.000000
  0
LINE
  8
0
 10
      199.500000
 20
      475.000000
 30
        0.000000
 11
      174.500000
 21
      475.000000
 31
        0.000000
  0
CIRCLE
  8
0
 10
      203.750000
 20
      470.000000
 30
        0.000000
 40
        1.500000
  0
CIRCLE
  8
0
 10
      203.750000
 20
      470.000000
 30
        0.000000
 40
        2.000000
  0
LINE
  8
0
 10
      174.500000
 20
      473.800003
 30
        0.000000
 11
      174.500000
 21
      475.000000
 31
        0.000000
  0
LINE
  8
0
 10
      199.500000
 20
      225.000000
 30
        0.000000
 11
      199.500000
 21
      226.199997
 31
        0.000000
  0
LINE
  8
0
 10
      174.500000
 20
      225.000000
 30
        0.000000
 11
      174.500000
 21
      226.199997
 31
        0.000000
  0
LINE
  8
0
 10
      199.500000
 20
      225.000000
 30
        0.000000
 11
      174.500000
 21
      225.000000
 31
        0.000000
  0
CIRCLE
  8
0
 10
      192.750000
 20
      230.000000
 30
        0.000000
 40
        1.500000
  0
CIRCLE
  8
0
 10
      192.750000
 20
      230.000000
 30
        0.000000
 40
        2.000000
  0
LINE
  8
0
 10
      137.920013
 20
      350.199951
 30
        0.000000
 11
      140.320007
 21
      347.799957
 31
        0.000000
  0
LINE
  8
0
 10
      137.920013
 20
      347.799988
 30
        0.000000
 11
      140.320007
 21
      350.199982
 31
        0.000000
  0
LINE
  8
0
 10
      137.920013
 20
      428.199951
 30
        0.000000
 11
      140.320007
 21
      425.799957
 31
        0.000000
  0
LINE
  8
0
 10
      137.920013
 20
      425.799988
 30
        0.000000
 11
      140.320007
 21
      428.199982
 31
        0.000000
  0
LINE
  8
0
 10
       35.920006
 20
      350.199951
 30
        0.000000
 11
       38.320000
 21
      347.799957
 31
        0.000000
  0
LINE
  8
0
 10
       35.920006
 20
      347.799988
 30
        0.000000
 11
       38.320000
 21
      350.199982
 31
        0.000000
  0
LINE
  8
0
 10
       35.920006
 20
      428.199951
 30
        0.000000
 11
       38.320000
 21
      425.799957
 31
        0.000000
  0
LINE
  8
0
 10
       35.920006
 20
      425.799988
 30
        0.000000
 11
       38.320000
 21
      428.199982
 31
        0.000000
  0
LINE
  8
0
 10
      -27.449992
 20
      350.199951
 30
        0.000000
 11
      -25.049996
 21
      347.799957
 31
        0.000000
  0
LINE
  8
0
 10
      -27.449992
 20
      347.799988
 30
        0.000000
 11
      -25.049996
 21
      350.199982
 31
        0.000000
  0
LINE
  8
0
 10
      -27.449992
 20
      425.799988
 30
        0.000000
 11
      -25.049996
 21
      428.199982
 31
        0.000000
  0
LINE
  8
0
 10
      -27.449992
 20
      428.199951
 30
        0.000000
 11
      -25.049996
 21
      425.799957
 31
        0.000000
  0
LINE
  8
0
 10
      -25.550000
 20
      371.799927
 30
        0.000000
 11
      -27.950000
 21
      374.199921
 31
        0.000000
  0
LINE
  8
0
 10
      -27.950001
 20
      371.799927
 30
        0.000000
 11
      -25.549999
 21
      374.199951
 31
        0.000000
  0
LINE
  8
0
 10
      -25.550000
 20
      381.799927
 30
        0.000000
 11
      -27.950000
 21
      384.199921
 31
        0.000000
  0
LINE
  8
0
 10
      -29.224874
 20
      380.525055
 30
        0.000000
 11
      -24.275127
 21
      385.474823
 31
        0.000000
  0
LINE
  8
0
 10
      -25.550001
 20
      391.799927
 30
        0.000000
 11
      -27.950000
 21
      394.199921
 31
        0.000000
  0
LINE
  8
0
 10
      -29.224873
 20
      390.525055
 30
        0.000000
 11
      -24.275127
 21
      395.474823
 31
        0.000000
  0
LINE
  8
0
 10
      -25.550001
 20
      401.799927
 30
        0.000000
 11
      -27.950000
 21
      404.199921
 31
        0.000000
  0
LINE
  8
0
 10
      -27.950001
 20
      401.799927
 30
        0.000000
 11
      -25.549999
 21
      404.199951
 31
        0.000000
  0
CIRCLE
  8
0
 10
      -26.750000
 20
      372.999939
 30
        0.000000
 40
        2.750000
  0
CIRCLE
  8
0
 10
      -26.750000
 20
      402.999939
 30
        0.000000
 40
        2.750000
  0
LINE
  8
0
 10
      -20.750002
 20
      377.199951
 30
        0.000000
 11
      -20.750002
 21
      368.799927
 31
        0.000000
  0
LINE
  8
0
 10
      -20.750002
 20
      387.199951
 30
        0.000000
 11
      -20.750002
 21
      378.799927
 31
        0.000000
  0
LINE
  8
0
 10
      -20.750002
 20
      397.199951
 30
        0.000000
 11
      -20.750002
 21
      388.799927
 31
        0.000000
  0
LINE
  8
0
 10
      -20.750002
 20
      407.199951
 30
        0.000000
 11
      -20.750002
 21
      398.799927
 31
        0.000000
  0
CIRCLE
  8
0
 10
      -26.750000
 20
      402.999939
 30
        0.000000
 40
        4.000000
  0
CIRCLE
  8
0
 10
      -26.750000
 20
      372.999939
 30
        0.000000
 40
        4.000000
  0
CIRCLE
  8
0
 10
      -26.750000
 20
      382.999939
 30
        0.000000
 40
        3.500000
  0
CIRCLE
  8
0
 10
      -26.750000
 20
      392.999939
 30
        0.000000
 40
        3.500000
  0
LINE
  8
0
 10
      -20.750002
 20
      377.199951
 30
        0.000000
 11
      -33.250000
 21
      377.199951
 31
        0.000000
  0
LINE
  8
0
 10
      -20.750002
 20
      398.799927
 30
        0.000000
 11
      -33.250000
 21
      398.799927
 31
        0.000000
  0
LINE
  8
0
 10
      -20.750002
 20
      397.199951
 30
        0.000000
 11
      -33.250000
 21
      397.199951
 31
        0.000000
  0
LINE
  8
0
 10
      -20.750002
 20
      388.799927
 30
        0.000000
 11
      -33.250000
 21
      388.799927
 31
        0.000000
  0
LINE
  8
0
 10
      -20.750002
 20
      378.799927
 30
        0.000000
 11
      -33.250000
 21
      378.799927
 31
        0.000000
  0
LINE
  8
0
 10
      -20.750002
 20
      387.199951
 30
        0.000000
 11
      -33.250000
 21
      387.199951
 31
        0.000000
  0
LINE
  8
0
 10
      -33.250000
 20
      407.199951
 30
        0.000000
 11
      -33.250000
 21
      368.799927
 31
        0.000000
  0
LINE
  8
0
 10
      -18.250000
 20
      407.199951
 30
        0.000000
 11
      -18.250000
 21
      368.799927
 31
        0.000000
  0
LINE
  8
0
 10
      -18.250000
 20
      407.199951
 30
        0.000000
 11
      -33.250000
 21
      407.199951
 31
        0.000000
  0
LINE
  8
0
 10
      -18.250000
 20
      368.799927
 30
        0.000000
 11
      -33.250000
 21
      368.799927
 31
        0.000000
  0
CIRCLE
  8
0
 10
      -26.250000
 20
      348.999969
 30
        0.000000
 40
        3.000000
  0
CIRCLE
  8
0
 10
      -26.250000
 20
      426.999969
 30
        0.000000
 40
        3.000000
  0
CIRCLE
  8
0
 10
       37.119995
 20
      348.999908
 30
        0.000000
 40
        3.000000
  0
CIRCLE
  8
0
 10
       37.119995
 20
      426.999969
 30
        0.000000
 40
        3.000000
  0
CIRCLE
  8
0
 10
      139.119995
 20
      348.999908
 30
        0.000000
 40
        3.000000
  0
CIRCLE
  8
0
 10
      139.119995
 20
      426.999969
 30
        0.000000
 40
        3.000000
  0
CIRCLE
  8
0
 10
        3.120003
 20
      348.999908
 30
        0.000000
 40
        1.799999
  0
CIRCLE
  8
0
 10
        3.120003
 20
      426.999969
 30
        0.000000
 40
        1.799999
  0
LINE
  8
0
 10
      173.949982
 20
      359.299896
 30
        0.000000
 11
      173.949982
 21
      358.199921
 31
        0.000000
  0
LINE
  8
0
 10
      173.949982
 20
      417.799957
 30
        0.000000
 11
      173.949982
 21
      416.699921
 31
        0.000000
  0
LINE
  8
0
 10
      173.949982
 20
      359.299896
 30
        0.000000
 11
      170.949982
 21
      359.299896
 31
        0.000000
  0
LINE
  8
0
 10
      173.949982
 20
      416.699921
 30
        0.000000
 11
      170.949982
 21
      416.699921
 31
        0.000000
  0
LINE
  8
0
 10
      175.999985
 20
      417.799957
 30
        0.000000
 11
      175.999985
 21
      422.799957
 31
        0.000000
  0
LINE
  8
0
 10
      175.999985
 20
      353.199921
 30
        0.000000
 11
      175.999985
 21
      358.199921
 31
        0.000000
  0
CIRCLE
  8
0
 10
      172.979980
 20
      420.299957
 30
        0.000000
 40
        1.400009
  0
CIRCLE
  8
0
 10
      172.979980
 20
      355.699921
 30
        0.000000
 40
        1.400009
  0
LINE
  8
0
 10
      176.949982
 20
      417.799957
 30
        0.000000
 11
      173.949982
 21
      417.799957
 31
        0.000000
  0
LINE
  8
0
 10
      176.949982
 20
      358.199921
 30
        0.000000
 11
      173.949982
 21
      358.199921
 31
        0.000000
  0
LINE
  8
0
 10
      170.949982
 20
      359.299896
 30
        0.000000
 11
      170.949982
 21
      416.699921
 31
        0.000000
  0
LINE
  8
0
 10
      176.949982
 20
      358.199921
 30
        0.000000
 11
      176.949982
 21
      417.799957
 31
        0.000000
  0
LINE
  8
0
 10
      169.899979
 20
      353.199921
 30
        0.000000
 11
      169.899979
 21
      422.799957
 31
        0.000000
  0
LINE
  8
0
 10
      177.999985
 20
      353.199921
 30
        0.000000
 11
      177.999985
 21
      422.799957
 31
        0.000000
  0
LINE
  8
0
 10
      177.999985
 20
      353.199921
 30
        0.000000
 11
      169.899979
 21
      353.199921
 31
        0.000000
  0
LINE
  8
0
 10
      177.999985
 20
      422.799957
 30
        0.000000
 11
      169.899979
 21
      422.799957
 31
        0.000000
  0
LINE
  8
0
 10
      139.949982
 20
      359.299896
 30
        0.000000
 11
      139.949982
 21
      358.199921
 31
        0.000000
  0
LINE
  8
0
 10
      139.949982
 20
      417.799957
 30
        0.000000
 11
      139.949982
 21
      416.699921
 31
        0.000000
  0
LINE
  8
0
 10
      139.949982
 20
      359.299896
 30
        0.000000
 11
      136.949982
 21
      359.299896
 31
        0.000000
  0
LINE
  8
0
 10
      139.949982
 20
      416.699921
 30
        0.000000
 11
      136.949982
 21
      416.699921
 31
        0.000000
  0
LINE
  8
0
 10
      141.999985
 20
      417.799957
 30
        0.000000
 11
      141.999985
 21
      422.799957
 31
        0.000000
  0
LINE
  8
0
 10
      141.999985
 20
      353.199921
 30
        0.000000
 11
      141.999985
 21
      358.199921
 31
        0.000000
  0
CIRCLE
  8
0
 10
      138.979980
 20
      420.299957
 30
        0.000000
 40
        1.400009
  0
CIRCLE
  8
0
 10
      138.979980
 20
      355.699921
 30
        0.000000
 40
        1.400009
  0
LINE
  8
0
 10
      142.949982
 20
      417.799957
 30
        0.000000
 11
      139.949982
 21
      417.799957
 31
        0.000000
  0
LINE
  8
0
 10
      142.949982
 20
      358.199921
 30
        0.000000
 11
      139.949982
 21
      358.199921
 31
        0.000000
  0
LINE
  8
0
 10
      136.949982
 20
      359.299896
 30
        0.000000
 11
      136.949982
 21
      416.699921
 31
        0.000000
  0
LINE
  8
0
 10
      142.949982
 20
      358.199921
 30
        0.000000
 11
      142.949982
 21
      417.799957
 31
        0.000000
  0
LINE
  8
0
 10
      135.899979
 20
      353.199921
 30
        0.000000
 11
      135.899979
 21
      422.799957
 31
        0.000000
  0
LINE
  8
0
 10
      143.999985
 20
      353.199921
 30
        0.000000
 11
      143.999985
 21
      422.799957
 31
        0.000000
  0
LINE
  8
0
 10
      143.999985
 20
      353.199921
 30
        0.000000
 11
      135.899979
 21
      353.199921
 31
        0.000000
  0
LINE
  8
0
 10
      143.999985
 20
      422.799957
 30
        0.000000
 11
      135.899979
 21
      422.799957
 31
        0.000000
  0
LINE
  8
0
 10
      105.949982
 20
      359.299896
 30
        0.000000
 11
      105.949982
 21
      358.199921
 31
        0.000000
  0
LINE
  8
0
 10
      105.949982
 20
      417.799957
 30
        0.000000
 11
      105.949982
 21
      416.699921
 31
        0.000000
  0
LINE
  8
0
 10
      105.949982
 20
      359.299896
 30
        0.000000
 11
      102.949982
 21
      359.299896
 31
        0.000000
  0
LINE
  8
0
 10
      105.949982
 20
      416.699921
 30
        0.000000
 11
      102.949982
 21
      416.699921
 31
        0.000000
  0
LINE
  8
0
 10
      107.999985
 20
      417.799957
 30
        0.000000
 11
      107.999985
 21
      422.799957
 31
        0.000000
  0
LINE
  8
0
 10
      107.999985
 20
      353.199921
 30
        0.000000
 11
      107.999985
 21
      358.199921
 31
        0.000000
  0
CIRCLE
  8
0
 10
      104.979980
 20
      420.299957
 30
        0.000000
 40
        1.400009
  0
CIRCLE
  8
0
 10
      104.979980
 20
      355.699921
 30
        0.000000
 40
        1.400009
  0
LINE
  8
0
 10
      108.949982
 20
      417.799957
 30
        0.000000
 11
      105.949982
 21
      417.799957
 31
        0.000000
  0
LINE
  8
0
 10
      108.949982
 20
      358.199921
 30
        0.000000
 11
      105.949982
 21
      358.199921
 31
        0.000000
  0
LINE
  8
0
 10
      102.949982
 20
      359.299896
 30
        0.000000
 11
      102.949982
 21
      416.699921
 31
        0.000000
  0
LINE
  8
0
 10
      108.949982
 20
      358.199921
 30
        0.000000
 11
      108.949982
 21
      417.799957
 31
        0.000000
  0
LINE
  8
0
 10
      101.899979
 20
      353.199921
 30
        0.000000
 11
      101.899979
 21
      422.799957
 31
        0.000000
  0
LINE
  8
0
 10
      109.999985
 20
      353.199921
 30
        0.000000
 11
      109.999985
 21
      422.799957
 31
        0.000000
  0
LINE
  8
0
 10
      109.999985
 20
      353.199921
 30
        0.000000
 11
      101.899979
 21
      353.199921
 31
        0.000000
  0
LINE
  8
0
 10
      109.999985
 20
      422.799957
 30
        0.000000
 11
      101.899979
 21
      422.799957
 31
        0.000000
  0
LINE
  8
0
 10
       71.949982
 20
      359.299896
 30
        0.000000
 11
       71.949982
 21
      358.199921
 31
        0.000000
  0
LINE
  8
0
 10
       71.949982
 20
      417.799957
 30
        0.000000
 11
       71.949982
 21
      416.699921
 31
        0.000000
  0
LINE
  8
0
 10
       71.949982
 20
      359.299896
 30
        0.000000
 11
       68.949982
 21
      359.299896
 31
        0.000000
  0
LINE
  8
0
 10
       71.949982
 20
      416.699921
 30
        0.000000
 11
       68.949982
 21
      416.699921
 31
        0.000000
  0
LINE
  8
0
 10
       73.999985
 20
      417.799957
 30
        0.000000
 11
       73.999985
 21
      422.799957
 31
        0.000000
  0
LINE
  8
0
 10
       73.999985
 20
      353.199921
 30
        0.000000
 11
       73.999985
 21
      358.199921
 31
        0.000000
  0
CIRCLE
  8
0
 10
       70.979980
 20
      420.299957
 30
        0.000000
 40
        1.400009
  0
CIRCLE
  8
0
 10
       70.979980
 20
      355.699921
 30
        0.000000
 40
        1.400009
  0
LINE
  8
0
 10
       74.949982
 20
      417.799957
 30
        0.000000
 11
       71.949982
 21
      417.799957
 31
        0.000000
  0
LINE
  8
0
 10
       74.949982
 20
      358.199921
 30
        0.000000
 11
       71.949982
 21
      358.199921
 31
        0.000000
  0
LINE
  8
0
 10
       68.949982
 20
      359.299896
 30
        0.000000
 11
       68.949982
 21
      416.699921
 31
        0.000000
  0
LINE
  8
0
 10
       74.949982
 20
      358.199921
 30
        0.000000
 11
       74.949982
 21
      417.799957
 31
        0.000000
  0
LINE
  8
0
 10
       67.899979
 20
      353.199921
 30
        0.000000
 11
       67.899979
 21
      422.799957
 31
        0.000000
  0
LINE
  8
0
 10
       75.999985
 20
      353.199921
 30
        0.000000
 11
       75.999985
 21
      422.799957
 31
        0.000000
  0
LINE
  8
0
 10
       75.999985
 20
      353.199921
 30
        0.000000
 11
       67.899979
 21
      353.199921
 31
        0.000000
  0
LINE
  8
0
 10
       75.999985
 20
      422.799957
 30
        0.000000
 11
       67.899979
 21
      422.799957
 31
        0.000000
  0
LINE
  8
0
 10
      -34.250000
 20
      430.499969
 30
        0.000000
 11
      -34.250000
 21
      345.499908
 31
        0.000000
  0
LINE
  8
0
 10
       37.949982
 20
      359.299896
 30
        0.000000
 11
       37.949982
 21
      358.199921
 31
        0.000000
  0
LINE
  8
0
 10
       37.949982
 20
      417.799957
 30
        0.000000
 11
       37.949982
 21
      416.699921
 31
        0.000000
  0
LINE
  8
0
 10
       37.949982
 20
      359.299896
 30
        0.000000
 11
       34.949982
 21
      359.299896
 31
        0.000000
  0
LINE
  8
0
 10
       37.949982
 20
      416.699921
 30
        0.000000
 11
       34.949982
 21
      416.699921
 31
        0.000000
  0
LINE
  8
0
 10
       39.999985
 20
      417.799957
 30
        0.000000
 11
       39.999985
 21
      422.799957
 31
        0.000000
  0
LINE
  8
0
 10
       39.999985
 20
      353.199921
 30
        0.000000
 11
       39.999985
 21
      358.199921
 31
        0.000000
  0
CIRCLE
  8
0
 10
       36.979980
 20
      420.299957
 30
        0.000000
 40
        1.400009
  0
CIRCLE
  8
0
 10
       36.979980
 20
      355.699921
 30
        0.000000
 40
        1.400009
  0
LINE
  8
0
 10
       40.949982
 20
      417.799957
 30
        0.000000
 11
       37.949982
 21
      417.799957
 31
        0.000000
  0
LINE
  8
0
 10
       40.949982
 20
      358.199921
 30
        0.000000
 11
       37.949982
 21
      358.199921
 31
        0.000000
  0
LINE
  8
0
 10
       34.949982
 20
      359.299896
 30
        0.000000
 11
       34.949982
 21
      416.699921
 31
        0.000000
  0
LINE
  8
0
 10
       40.949982
 20
      358.199921
 30
        0.000000
 11
       40.949982
 21
      417.799957
 31
        0.000000
  0
LINE
  8
0
 10
       33.899979
 20
      353.199921
 30
        0.000000
 11
       33.899979
 21
      422.799957
 31
        0.000000
  0
LINE
  8
0
 10
       41.999985
 20
      353.199921
 30
        0.000000
 11
       41.999985
 21
      422.799957
 31
        0.000000
  0
LINE
  8
0
 10
       41.999985
 20
      353.199921
 30
        0.000000
 11
       33.899979
 21
      353.199921
 31
        0.000000
  0
LINE
  8
0
 10
       41.999985
 20
      422.799957
 30
        0.000000
 11
       33.899979
 21
      422.799957
 31
        0.000000
  0
LINE
  8
0
 10
        3.949986
 20
      359.299896
 30
        0.000000
 11
        3.949986
 21
      358.199921
 31
        0.000000
  0
LINE
  8
0
 10
        3.949986
 20
      417.799957
 30
        0.000000
 11
        3.949986
 21
      416.699921
 31
        0.000000
  0
LINE
  8
0
 10
        3.949986
 20
      359.299896
 30
        0.000000
 11
        0.949986
 21
      359.299896
 31
        0.000000
  0
LINE
  8
0
 10
        3.949986
 20
      416.699921
 30
        0.000000
 11
        0.949986
 21
      416.699921
 31
        0.000000
  0
LINE
  8
0
 10
        5.999989
 20
      417.799957
 30
        0.000000
 11
        5.999989
 21
      422.799957
 31
        0.000000
  0
LINE
  8
0
 10
        5.999989
 20
      353.199921
 30
        0.000000
 11
        5.999989
 21
      358.199921
 31
        0.000000
  0
CIRCLE
  8
0
 10
        2.979984
 20
      420.299957
 30
        0.000000
 40
        1.400002
  0
CIRCLE
  8
0
 10
        2.979984
 20
      355.699921
 30
        0.000000
 40
        1.400002
  0
LINE
  8
0
 10
        6.949986
 20
      417.799957
 30
        0.000000
 11
        3.949986
 21
      417.799957
 31
        0.000000
  0
LINE
  8
0
 10
        6.949986
 20
      358.199921
 30
        0.000000
 11
        3.949986
 21
      358.199921
 31
        0.000000
  0
LINE
  8
0
 10
        0.949986
 20
      359.299896
 30
        0.000000
 11
        0.949986
 21
      416.699921
 31
        0.000000
  0
LINE
  8
0
 10
        6.949986
 20
      358.199921
 30
        0.000000
 11
        6.949986
 21
      417.799957
 31
        0.000000
  0
LINE
  8
0
 10
       -0.100018
 20
      353.199921
 30
        0.000000
 11
       -0.100018
 21
      422.799957
 31
        0.000000
  0
LINE
  8
0
 10
        7.999989
 20
      353.199921
 30
        0.000000
 11
        7.999989
 21
      422.799957
 31
        0.000000
  0
LINE
  8
0
 10
        7.999989
 20
      353.199921
 30
        0.000000
 11
       -0.100018
 21
      353.199921
 31
        0.000000
  0
LINE
  8
0
 10
        7.999989
 20
      422.799957
 30
        0.000000
 11
       -0.100018
 21
      422.799957
 31
        0.000000
  0
CIRCLE
  8
0
 10
       37.119995
 20
      248.499933
 30
        0.000000
 40
        1.000000
  0
CIRCLE
  8
0
 10
       37.119995
 20
      248.499933
 30
        0.000000
 40
        1.300000
  0
CIRCLE
  8
0
 10
       71.119995
 20
      248.499933
 30
        0.000000
 40
        1.300000
  0
CIRCLE
  8
0
 10
       71.119995
 20
      248.499933
 30
        0.000000
 40
        1.000000
  0
CIRCLE
  8
0
 10
      105.119995
 20
      248.499933
 30
        0.000000
 40
        1.000000
  0
CIRCLE
  8
0
 10
      105.119995
 20
      248.499933
 30
        0.000000
 40
        1.300000
  0
CIRCLE
  8
0
 10
      139.119995
 20
      248.499933
 30
        0.000000
 40
        1.300000
  0
CIRCLE
  8
0
 10
      139.119995
 20
      248.499933
 30
        0.000000
 40
        1.000000
  0
CIRCLE
  8
0
 10
      173.119995
 20
      248.499933
 30
        0.000000
 40
        1.000000
  0
CIRCLE
  8
0
 10
      173.119995
 20
      248.499933
 30
        0.000000
 40
        1.300000
  0
CIRCLE
  8
0
 10
      173.119995
 20
      338.500000
 30
        0.000000
 40
        1.300000
  0
CIRCLE
  8
0
 10
      173.119995
 20
      338.500000
 30
        0.000000
 40
        1.000000
  0
CIRCLE
  8
0
 10
      139.119995
 20
      338.500000
 30
        0.000000
 40
        1.000000
  0
CIRCLE
  8
0
 10
      139.119995
 20
      338.500000
 30
        0.000000
 40
        1.300000
  0
CIRCLE
  8
0
 10
      105.119995
 20
      338.500000
 30
        0.000000
 40
        1.300000
  0
CIRCLE
  8
0
 10
      105.119995
 20
      338.500000
 30
        0.000000
 40
        1.000000
  0
CIRCLE
  8
0
 10
       71.119995
 20
      338.500000
 30
        0.000000
 40
        1.000000
  0
CIRCLE
  8
0
 10
       71.119995
 20
      338.500000
 30
        0.000000
 40
        1.300000
  0
CIRCLE
  8
0
 10
       37.119995
 20
      338.500000
 30
        0.000000
 40
        1.300000
  0
CIRCLE
  8
0
 10
       37.119995
 20
      338.500000
 30
        0.000000
 40
        1.000000
  0
LINE
  8
0
 10
      -34.250000
 20
      473.800003
 30
        0.000000
 11
      -36.250000
 21
      471.799957
 31
        0.000000
  0
LINE
  8
0
 10
      -34.250000
 20
      473.800003
 30
        0.000000
 11
      -16.250000
 21
      473.800003
 31
        0.000000
  0
LINE
  8
0
 10
      -16.250000
 20
      475.000000
 30
        0.000000
 11
      -16.250000
 21
      473.800003
 31
        0.000000
  0
LINE
  8
0
 10
       -4.500000
 20
      475.000000
 30
        0.000000
 11
      -16.250000
 21
      475.000000
 31
        0.000000
  0
LINE
  8
0
 10
       29.500000
 20
      475.000000
 30
        0.000000
 11
        4.500000
 21
      475.000000
 31
        0.000000
  0
LINE
  8
0
 10
       63.500000
 20
      475.000000
 30
        0.000000
 11
       38.500000
 21
      475.000000
 31
        0.000000
  0
LINE
  8
0
 10
       97.500000
 20
      475.000000
 30
        0.000000
 11
       72.500000
 21
      475.000000
 31
        0.000000
  0
LINE
  8
0
 10
      131.500000
 20
      475.000000
 30
        0.000000
 11
      106.500000
 21
      475.000000
 31
        0.000000
  0
LINE
  8
0
 10
       -4.500000
 20
      473.800003
 30
        0.000000
 11
       -4.500000
 21
      475.000000
 31
        0.000000
  0
LINE
  8
0
 10
        4.500000
 20
      473.800003
 30
        0.000000
 11
        4.500000
 21
      475.000000
 31
        0.000000
  0
LINE
  8
0
 10
       29.500000
 20
      473.800003
 30
        0.000000
 11
       29.500000
 21
      475.000000
 31
        0.000000
  0
LINE
  8
0
 10
       38.500000
 20
      473.800003
 30
        0.000000
 11
       38.500000
 21
      475.000000
 31
        0.000000
  0
LINE
  8
0
 10
       63.500000
 20
      473.800003
 30
        0.000000
 11
       63.500000
 21
      475.000000
 31
        0.000000
  0
LINE
  8
0
 10
       72.500000
 20
      473.800003
 30
        0.000000
 11
       72.500000
 21
      475.000000
 31
        0.000000
  0
LINE
  8
0
 10
       97.500000
 20
      473.800003
 30
        0.000000
 11
       97.500000
 21
      475.000000
 31
        0.000000
  0
LINE
  8
0
 10
      106.500000
 20
      473.800003
 30
        0.000000
 11
      106.500000
 21
      475.000000
 31
        0.000000
  0
LINE
  8
0
 10
      131.500000
 20
      473.800003
 30
        0.000000
 11
      131.500000
 21
      475.000000
 31
        0.000000
  0
LINE
  8
0
 10
      140.500000
 20
      473.800003
 30
        0.000000
 11
      140.500000
 21
      475.000000
 31
        0.000000
  0
LINE
  8
0
 10
      165.500000
 20
      475.000000
 30
        0.000000
 11
      140.500000
 21
      475.000000
 31
        0.000000
  0
LINE
  8
0
 10
      165.500000
 20
      473.800003
 30
        0.000000
 11
      165.500000
 21
      475.000000
 31
        0.000000
  0
LINE
  8
0
 10
       63.500000
 20
      225.000000
 30
        0.000000
 11
       38.500000
 21
      225.000000
 31
        0.000000
  0
LINE
  8
0
 10
       97.500000
 20
      225.000000
 30
        0.000000
 11
       72.500000
 21
      225.000000
 31
        0.000000
  0
LINE
  8
0
 10
      131.500000
 20
      225.000000
 30
        0.000000
 11
      106.500000
 21
      225.000000
 31
        0.000000
  0
LINE
  8
0
 10
      165.500000
 20
      225.000000
 30
        0.000000
 11
      140.500000
 21
      225.000000
 31
        0.000000
  0
LINE
  8
0
 10
       29.500000
 20
      225.000000
 30
        0.000000
 11
       29.500000
 21
      226.199997
 31
        0.000000
  0
LINE
  8
0
 10
       38.500000
 20
      225.000000
 30
        0.000000
 11
       38.500000
 21
      226.199997
 31
        0.000000
  0
LINE
  8
0
 10
       63.500000
 20
      225.000000
 30
        0.000000
 11
       63.500000
 21
      226.199997
 31
        0.000000
  0
LINE
  8
0
 10
       72.500000
 20
      225.000000
 30
        0.000000
 11
       72.500000
 21
      226.199997
 31
        0.000000
  0
LINE
  8
0
 10
       97.500000
 20
      225.000000
 30
        0.000000
 11
       97.500000
 21
      226.199997
 31
        0.000000
  0
LINE
  8
0
 10
      106.500000
 20
      225.000000
 30
        0.000000
 11
      106.500000
 21
      226.199997
 31
        0.000000
  0
LINE
  8
0
 10
      131.500000
 20
      225.000000
 30
        0.000000
 11
      131.500000
 21
      226.199997
 31
        0.000000
  0
LINE
  8
0
 10
      140.500000
 20
      225.000000
 30
        0.000000
 11
      140.500000
 21
      226.199997
 31
        0.000000
  0
LINE
  8
0
 10
      165.500000
 20
      225.000000
 30
        0.000000
 11
      165.500000
 21
      226.199997
 31
        0.000000
  0
LINE
  8
0
 10
      -36.250000
 20
      228.199997
 30
        0.000000
 11
      -34.250061
 21
      226.199997
 31
        0.000000
  0
CIRCLE
  8
0
 10
      -11.250000
 20
      230.000000
 30
        0.000000
 40
        1.500000
  0
CIRCLE
  8
0
 10
      -11.250000
 20
      230.000000
 30
        0.000000
 40
        2.000000
  0
ARC
  8
0
 10
      -20.250000
 20
      236.000000
 30
        0.000000
 40
        2.000000
 50
      270.000000
 51
      360.000000
  0
ARC
  8
0
 10
      -20.250000
 20
      256.000000
 30
        0.000000
 40
        2.000000
 50
        0.000000
 51
       90.000000
  0
LINE
  8
0
 10
      -36.250000
 20
      234.000000
 30
        0.000000
 11
      -20.250000
 21
      234.000000
 31
        0.000000
  0
LINE
  8
0
 10
      -18.250000
 20
      256.000000
 30
        0.000000
 11
      -18.250000
 21
      236.000000
 31
        0.000000
  0
LINE
  8
0
 10
      -36.250000
 20
      258.000000
 30
        0.000000
 11
      -20.250000
 21
      258.000000
 31
        0.000000
  0
LINE
  8
0
 10
        4.500000
 20
      225.000000
 30
        0.000000
 11
        4.500000
 21
      226.199997
 31
        0.000000
  0
LINE
  8
0
 10
       -4.500000
 20
      225.000000
 30
        0.000000
 11
       -4.500000
 21
      226.199997
 31
        0.000000
  0
LINE
  8
0
 10
       29.500000
 20
      225.000000
 30
        0.000000
 11
        4.500000
 21
      225.000000
 31
        0.000000
  0
LINE
  8
0
 10
       -4.500000
 20
      225.000000
 30
        0.000000
 11
      -16.250000
 21
      225.000000
 31
        0.000000
  0
LINE
  8
0
 10
      -16.250000
 20
      226.199997
 30
        0.000000
 11
      -16.250000
 21
      225.000000
 31
        0.000000
  0
LINE
  8
0
 10
      -34.250061
 20
      226.199997
 30
        0.000000
 11
      -16.250000
 21
      226.199997
 31
        0.000000
  0
LINE
  8
0
 10
      -34.250000
 20
      353.999969
 30
        0.000000
 11
      -36.250000
 21
      353.999969
 31
        0.000000
  0
LINE
  8
0
 10
      -34.250000
 20
      421.499969
 30
        0.000000
 11
      -36.250000
 21
      421.499969
 31
        0.000000
  0
LINE
  8
0
 10
      -36.250000
 20
      421.499969
 30
        0.000000
 11
      -36.250000
 21
      353.999969
 31
        0.000000
  0
LINE
  8
0
 10
      -35.049988
 20
      421.499969
 30
        0.000000
 11
      -35.049988
 21
      353.999969
 31
        0.000000
  0
LINE
  8
0
 10
       32.119995
 20
      336.099970
 30
        0.000000
 11
       32.119995
 21
      250.899963
 31
        0.000000
  0
LINE
  8
0
 10
      -18.250000
 20
      456.000000
 30
        0.000000
 11
      -18.250000
 21
      436.000000
 31
        0.000000
  0
LINE
  8
0
 10
      -36.250000
 20
      458.000000
 30
        0.000000
 11
      -20.250000
 21
      458.000000
 31
        0.000000
  0
LINE
  8
0
 10
      -36.250000
 20
      434.000000
 30
        0.000000
 11
      -20.250000
 21
      434.000000
 31
        0.000000
  0
ARC
  8
0
 10
      -20.250000
 20
      456.000000
 30
        0.000000
 40
        2.000000
 50
        0.000000
 51
       90.000000
  0
ARC
  8
0
 10
      -20.250000
 20
      436.000000
 30
        0.000000
 40
        2.000000
 50
      270.000000
 51
      360.000000
  0
CIRCLE
  8
0
 10
       -0.250000
 20
      470.000000
 30
        0.000000
 40
        2.000000
  0
CIRCLE
  8
0
 10
       -0.250000
 20
      470.000000
 30
        0.000000
 40
        1.500000
  0
CIRCLE
  8
0
 10
       33.750000
 20
      470.000000
 30
        0.000000
 40
        2.000000
  0
CIRCLE
  8
0
 10
       33.750000
 20
      470.000000
 30
        0.000000
 40
        1.500000
  0
CIRCLE
  8
0
 10
       22.750000
 20
      230.000000
 30
        0.000000
 40
        2.000000
  0
CIRCLE
  8
0
 10
       22.750000
 20
      230.000000
 30
        0.000000
 40
        1.500000
  0
CIRCLE
  8
0
 10
       67.750000
 20
      470.000000
 30
        0.000000
 40
        2.000000
  0
CIRCLE
  8
0
 10
       67.750000
 20
      470.000000
 30
        0.000000
 40
        1.500000
  0
CIRCLE
  8
0
 10
       56.750000
 20
      230.000000
 30
        0.000000
 40
        2.000000
  0
CIRCLE
  8
0
 10
       56.750000
 20
      230.000000
 30
        0.000000
 40
        1.500000
  0
CIRCLE
  8
0
 10
      101.750000
 20
      470.000000
 30
        0.000000
 40
        2.000000
  0
CIRCLE
  8
0
 10
      101.750000
 20
      470.000000
 30
        0.000000
 40
        1.500000
  0
CIRCLE
  8
0
 10
       90.750000
 20
      230.000000
 30
        0.000000
 40
        2.000000
  0
CIRCLE
  8
0
 10
       90.750000
 20
      230.000000
 30
        0.000000
 40
        1.500000
  0
CIRCLE
  8
0
 10
      135.750000
 20
      470.000000
 30
        0.000000
 40
        2.000000
  0
CIRCLE
  8
0
 10
      135.750000
 20
      470.000000
 30
        0.000000
 40
        1.500000
  0
CIRCLE
  8
0
 10
      124.750000
 20
      230.000000
 30
        0.000000
 40
        2.000000
  0
CIRCLE
  8
0
 10
      124.750000
 20
      230.000000
 30
        0.000000
 40
        1.500000
  0
CIRCLE
  8
0
 10
      169.750000
 20
      470.000000
 30
        0.000000
 40
        2.000000
  0
CIRCLE
  8
0
 10
      169.750000
 20
      470.000000
 30
        0.000000
 40
        1.500000
  0
CIRCLE
  8
0
 10
      158.750000
 20
      230.000000
 30
        0.000000
 40
        2.000000
  0
CIRCLE
  8
0
 10
      158.750000
 20
      230.000000
 30
        0.000000
 40
        1.500000
  0
LINE
  8
0
 10
      -34.250000
 20
      351.999969
 30
        0.000000
 11
      -36.250000
 21
      351.999969
 31
        0.000000
  0
LINE
  8
0
 10
      -34.250000
 20
      423.999969
 30
        0.000000
 11
      -36.250000
 21
      423.999969
 31
        0.000000
  0
LINE
  8
0
 10
      -23.250000
 20
      434.000000
 30
        0.000000
 11
      -23.250000
 21
      434.803833
 31
        0.000000
  0
LINE
  8
0
 10
      -29.250000
 20
      434.000000
 30
        0.000000
 11
      -29.250000
 21
      434.803864
 31
        0.000000
  0
ARC
  8
0
 10
      -26.250000
 20
      440.000000
 30
        0.000000
 40
        6.000000
 50
      119.999997
 51
      240.000013
  0
ARC
  8
0
 10
      -26.250000
 20
      440.000000
 30
        0.000000
 40
        6.000013
 50
      299.999944
 51
      420.000066
  0
ARC
  8
0
 10
      -26.250000
 20
      450.000000
 30
        0.000000
 40
        3.000000
 50
        0.000000
 51
      180.000015
  0
LINE
  8
0
 10
      -23.250000
 20
      450.000000
 30
        0.000000
 11
      -23.250000
 21
      445.196152
 31
        0.000000
  0
LINE
  8
0
 10
      -29.250000
 20
      450.000000
 30
        0.000000
 11
      -29.250000
 21
      445.196152
 31
        0.000000
  0
LINE
  8
0
 10
      -23.250000
 20
      234.000000
 30
        0.000000
 11
      -23.250000
 21
      234.803833
 31
        0.000000
  0
LINE
  8
0
 10
      -29.250000
 20
      234.000000
 30
        0.000000
 11
      -29.250000
 21
      234.803864
 31
        0.000000
  0
ARC
  8
0
 10
      -26.250000
 20
      240.000000
 30
        0.000000
 40
        6.000000
 50
      119.999997
 51
      240.000013
  0
ARC
  8
0
 10
      -26.250000
 20
      240.000000
 30
        0.000000
 40
        6.000013
 50
      299.999944
 51
      420.000066
  0
ARC
  8
0
 10
      -26.250000
 20
      250.000000
 30
        0.000000
 40
        3.000000
 50
        0.000000
 51
      180.000015
  0
LINE
  8
0
 10
      -23.250000
 20
      250.000000
 30
        0.000000
 11
      -23.250000
 21
      245.196152
 31
        0.000000
  0
LINE
  8
0
 10
      -29.250000
 20
      250.000000
 30
        0.000000
 11
      -29.250000
 21
      245.196152
 31
        0.000000
  0
LINE
  8
0
  6
CENTER
 10
      -22.650000
 20
      250.000000
 30
        0.000000
 11
      -29.850000
 21
      250.000000
 31
        0.000000
  0
LINE
  8
0
  6
CENTER
 10
      -26.250000
 20
      253.600000
 30
        0.000000
 11
      -26.250000
 21
      246.400000
 31
        0.000000
  0
LINE
  8
0
  6
CENTER
 10
      -22.650000
 20
      450.000000
 30
        0.000000
 11
      -29.850000
 21
      450.000000
 31
        0.000000
  0
LINE
  8
0
  6
CENTER
 10
      -26.250000
 20
      453.600000
 30
        0.000000
 11
      -26.250000
 21
      446.400000
 31
        0.000000
  0
LINE
  8
0
 10
      -34.250000
 20
       80.499969
 30
        0.000000
 11
      -34.250000
 21
       -4.500092
 31
        0.000000
  0
CIRCLE
  8
0
 10
      -26.250000
 20
       76.999969
 30
        0.000000
 40
        3.000000
  0
CIRCLE
  8
0
 10
      -26.250000
 20
       -1.000031
 30
        0.000000
 40
        3.000000
  0
LINE
  8
0
 10
      -18.250000
 20
       18.799927
 30
        0.000000
 11
      -33.250000
 21
       18.799927
 31
        0.000000
  0
LINE
  8
0
 10
      -18.250000
 20
       57.199951
 30
        0.000000
 11
      -33.250000
 21
       57.199951
 31
        0.000000
  0
LINE
  8
0
 10
      -18.250000
 20
       57.199951
 30
        0.000000
 11
      -18.250000
 21
       18.799927
 31
        0.000000
  0
LINE
  8
0
 10
      -33.250000
 20
       57.199951
 30
        0.000000
 11
      -33.250000
 21
       18.799927
 31
        0.000000
  0
LINE
  8
0
 10
      -20.750002
 20
       37.199951
 30
        0.000000
 11
      -33.250000
 21
       37.199951
 31
        0.000000
  0
LINE
  8
0
 10
      -20.750002
 20
       28.799927
 30
        0.000000
 11
      -33.250000
 21
       28.799927
 31
        0.000000
  0
LINE
  8
0
 10
      -20.750002
 20
       38.799927
 30
        0.000000
 11
      -33.250000
 21
       38.799927
 31
        0.000000
  0
LINE
  8
0
 10
      -20.750002
 20
       47.199951
 30
        0.000000
 11
      -33.250000
 21
       47.199951
 31
        0.000000
  0
LINE
  8
0
 10
      -20.750002
 20
       48.799927
 30
        0.000000
 11
      -33.250000
 21
       48.799927
 31
        0.000000
  0
LINE
  8
0
 10
      -20.750002
 20
       27.199951
 30
        0.000000
 11
      -33.250000
 21
       27.199951
 31
        0.000000
  0
CIRCLE
  8
0
 10
      -26.750000
 20
       42.999939
 30
        0.000000
 40
        3.500000
  0
CIRCLE
  8
0
 10
      -26.750000
 20
       32.999939
 30
        0.000000
 40
        3.500000
  0
CIRCLE
  8
0
 10
      -26.750000
 20
       22.999939
 30
        0.000000
 40
        4.000000
  0
CIRCLE
  8
0
 10
      -26.750000
 20
       52.999939
 30
        0.000000
 40
        4.000000
  0
LINE
  8
0
 10
      -20.750002
 20
       57.199951
 30
        0.000000
 11
      -20.750002
 21
       48.799927
 31
        0.000000
  0
LINE
  8
0
 10
      -20.750002
 20
       47.199951
 30
        0.000000
 11
      -20.750002
 21
       38.799927
 31
        0.000000
  0
LINE
  8
0
 10
      -20.750002
 20
       37.199951
 30
        0.000000
 11
      -20.750002
 21
       28.799927
 31
        0.000000
  0
LINE
  8
0
 10
      -20.750002
 20
       27.199951
 30
        0.000000
 11
      -20.750002
 21
       18.799927
 31
        0.000000
  0
CIRCLE
  8
0
 10
      -26.750000
 20
       52.999939
 30
        0.000000
 40
        2.750000
  0
CIRCLE
  8
0
 10
      -26.750000
 20
       22.999939
 30
        0.000000
 40
        2.750000
  0
LINE
  8
0
 10
      -27.950001
 20
       51.799927
 30
        0.000000
 11
      -25.549999
 21
       54.199951
 31
        0.000000
  0
LINE
  8
0
 10
      -25.550001
 20
       51.799927
 30
        0.000000
 11
      -27.950000
 21
       54.199921
 31
        0.000000
  0
LINE
  8
0
 10
      -29.224873
 20
       40.525055
 30
        0.000000
 11
      -24.275127
 21
       45.474823
 31
        0.000000
  0
LINE
  8
0
 10
      -25.550001
 20
       41.799927
 30
        0.000000
 11
      -27.950000
 21
       44.199921
 31
        0.000000
  0
LINE
  8
0
 10
      -29.224874
 20
       30.525055
 30
        0.000000
 11
      -24.275127
 21
       35.474823
 31
        0.000000
  0
LINE
  8
0
 10
      -25.550000
 20
       31.799927
 30
        0.000000
 11
      -27.950000
 21
       34.199921
 31
        0.000000
  0
LINE
  8
0
 10
      -27.950001
 20
       21.799927
 30
        0.000000
 11
      -25.549999
 21
       24.199951
 31
        0.000000
  0
LINE
  8
0
 10
      -25.550000
 20
       21.799927
 30
        0.000000
 11
      -27.950000
 21
       24.199921
 31
        0.000000
  0
LINE
  8
0
 10
      -27.449992
 20
       78.199951
 30
        0.000000
 11
      -25.049996
 21
       75.799957
 31
        0.000000
  0
LINE
  8
0
 10
      -27.449992
 20
       75.799988
 30
        0.000000
 11
      -25.049996
 21
       78.199982
 31
        0.000000
  0
LINE
  8
0
 10
      -27.449992
 20
       -2.200012
 30
        0.000000
 11
      -25.049996
 21
        0.199982
 31
        0.000000
  0
LINE
  8
0
 10
      -27.449992
 20
        0.199951
 30
        0.000000
 11
      -25.049996
 21
       -2.200043
 31
        0.000000
  0
LINE
  8
0
  6
CENTER
 10
      238.000000
 20
      130.792917
 30
        0.000000
 11
      238.000000
 21
     -134.946747
 31
        0.000000
  0
LINE
  8
0
  6
CENTER
 10
      204.000000
 20
      130.792917
 30
        0.000000
 11
      204.000000
 21
     -134.946747
 31
        0.000000
  0
LINE
  8
0
  6
CENTER
 10
      170.000000
 20
      130.792917
 30
        0.000000
 11
      170.000000
 21
     -134.946747
 31
        0.000000
  0
LINE
  8
0
  6
CENTER
 10
      136.000000
 20
      130.792917
 30
        0.000000
 11
      136.000000
 21
     -134.946747
 31
        0.000000
  0
LINE
  8
0
  6
CENTER
 10
      102.000000
 20
      130.792917
 30
        0.000000
 11
      102.000000
 21
     -134.946747
 31
        0.000000
  0
LINE
  8
0
  6
CENTER
 10
       68.000000
 20
      130.792917
 30
        0.000000
 11
       68.000000
 21
     -134.946747
 31
        0.000000
  0
LINE
  8
0
  6
CENTER
 10
       34.000000
 20
      130.792917
 30
        0.000000
 11
       34.000000
 21
     -134.946747
 31
        0.000000
  0
LINE
  8
0
  6
CENTER
 10
        0.000000
 20
      130.792917
 30
        0.000000
 11
        0.000000
 21
     -134.946747
 31
        0.000000
  0
LINE
  8
0
  6
CENTER
 10
      -26.250000
 20
      103.600000
 30
        0.000000
 11
      -26.250000
 21
       96.400000
 31
        0.000000
  0
LINE
  8
0
  6
CENTER
 10
      -22.650000
 20
      100.000000
 30
        0.000000
 11
      -29.850000
 21
      100.000000
 31
        0.000000
  0
LINE
  8
0
  6
CENTER
 10
      -26.250000
 20
      -96.400000
 30
        0.000000
 11
      -26.250000
 21
     -103.600000
 31
        0.000000
  0
LINE
  8
0
  6
CENTER
 10
      -22.650000
 20
     -100.000000
 30
        0.000000
 11
      -29.850000
 21
     -100.000000
 31
        0.000000
  0
LINE
  8
0
 10
      -29.250000
 20
       84.000000
 30
        0.000000
 11
      -29.250000
 21
       84.803864
 31
        0.000000
  0
LINE
  8
0
 10
      -23.250000
 20
       84.000000
 30
        0.000000
 11
      -23.250000
 21
       84.803833
 31
        0.000000
  0
LINE
  8
0
 10
      -34.250000
 20
       73.999969
 30
        0.000000
 11
      -36.250000
 21
       73.999969
 31
        0.000000
  0
LINE
  8
0
 10
      -34.250000
 20
        1.999969
 30
        0.000000
 11
      -36.250000
 21
        1.999969
 31
        0.000000
  0
ARC
  8
0
 10
      -20.250000
 20
       86.000000
 30
        0.000000
 40
        2.000000
 50
      270.000000
 51
      360.000000
  0
ARC
  8
0
 10
      -20.250000
 20
      106.000000
 30
        0.000000
 40
        2.000000
 50
        0.000000
 51
       90.000000
  0
LINE
  8
0
 10
      -36.250000
 20
       84.000000
 30
        0.000000
 11
      -20.250000
 21
       84.000000
 31
        0.000000
  0
LINE
  8
0
 10
      -35.049988
 20
       71.499969
 30
        0.000000
 11
      -35.049988
 21
        3.999969
 31
        0.000000
  0
LINE
  8
0
 10
      -36.250000
 20
       71.499969
 30
        0.000000
 11
      -36.250000
 21
        3.999969
 31
        0.000000
  0
LINE
  8
0
 10
      -34.250000
 20
       71.499969
 30
        0.000000
 11
      -36.250000
 21
       71.499969
 31
        0.000000
  0
LINE
  8
0
 10
      -34.250000
 20
        3.999969
 30
        0.000000
 11
      -36.250000
 21
        3.999969
 31
        0.000000
  0
LINE
  8
0
 10
      -34.250061
 20
     -123.800003
 30
        0.000000
 11
      -16.250000
 21
     -123.800003
 31
        0.000000
  0
LINE
  8
0
 10
      -36.250000
 20
      -92.000000
 30
        0.000000
 11
      -20.250000
 21
      -92.000000
 31
        0.000000
  0
LINE
  8
0
 10
      -18.250000
 20
      -94.000000
 30
        0.000000
 11
      -18.250000
 21
     -114.000000
 31
        0.000000
  0
ARC
  8
0
 10
      -20.250000
 20
      -94.000000
 30
        0.000000
 40
        2.000000
 50
        0.000000
 51
       90.000000
  0
ARC
  8
0
 10
      -20.250000
 20
     -114.000000
 30
        0.000000
 40
        2.000000
 50
      270.000000
 51
      360.000000
  0
LINE
  8
0
 10
      -36.250000
 20
     -121.800003
 30
        0.000000
 11
      -34.250061
 21
     -123.800003
 31
        0.000000
  0
LINE
  8
0
 10
      -34.250000
 20
      123.800003
 30
        0.000000
 11
      -16.250000
 21
      123.800003
 31
        0.000000
  0
LINE
  8
0
 10
      -34.250000
 20
      123.800003
 30
        0.000000
 11
      -36.250000
 21
      121.799957
 31
        0.000000
  0
LINE
  8
0
 10
      -18.250000
 20
      106.000000
 30
        0.000000
 11
      -18.250000
 21
       86.000000
 31
        0.000000
  0
ARC
  8
0
 10
      -26.250000
 20
       90.000000
 30
        0.000000
 40
        6.000013
 50
      299.999944
 51
      420.000066
  0
LINE
  8
0
 10
      -23.250000
 20
      100.000000
 30
        0.000000
 11
      -23.250000
 21
       95.196152
 31
        0.000000
  0
ARC
  8
0
 10
      -26.250000
 20
       90.000000
 30
        0.000000
 40
        6.000000
 50
      119.999997
 51
      240.000013
  0
LINE
  8
0
 10
      -29.250000
 20
      100.000000
 30
        0.000000
 11
      -29.250000
 21
       95.196152
 31
        0.000000
  0
LINE
  8
0
 10
      -36.250000
 20
      108.000000
 30
        0.000000
 11
      -20.250000
 21
      108.000000
 31
        0.000000
  0
ARC
  8
0
 10
      -26.250000
 20
      100.000000
 30
        0.000000
 40
        3.000000
 50
        0.000000
 51
      180.000015
  0
ARC
  8
0
 10
      -26.250000
 20
     -100.000000
 30
        0.000000
 40
        3.000000
 50
        0.000000
 51
      180.000015
  0
LINE
  8
0
 10
      -23.250000
 20
     -100.000000
 30
        0.000000
 11
      -23.250000
 21
     -104.803848
 31
        0.000000
  0
LINE
  8
0
 10
      -23.250000
 20
     -116.000000
 30
        0.000000
 11
      -23.250000
 21
     -115.196167
 31
        0.000000
  0
ARC
  8
0
 10
      -26.250000
 20
     -110.000000
 30
        0.000000
 40
        6.000013
 50
      299.999944
 51
      420.000066
  0
LINE
  8
0
 10
      -29.250000
 20
     -116.000000
 30
        0.000000
 11
      -29.250000
 21
     -115.196136
 31
        0.000000
  0
LINE
  8
0
 10
      -36.250000
 20
     -116.000000
 30
        0.000000
 11
      -20.250000
 21
     -116.000000
 31
        0.000000
  0
LINE
  8
0
 10
      -29.250000
 20
     -100.000000
 30
        0.000000
 11
      -29.250000
 21
     -104.803848
 31
        0.000000
  0
ARC
  8
0
 10
      -26.250000
 20
     -110.000000
 30
        0.000000
 40
        6.000000
 50
      119.999997
 51
      240.000013
  0
LINE
  8
0
 10
      -16.750000
 20
       80.499969
 30
        0.000000
 11
      -34.250000
 21
       80.499969
 31
        0.000000
  0
LINE
  8
0
 10
      -16.750000
 20
       -4.500092
 30
        0.000000
 11
      -34.250000
 21
       -4.500092
 31
        0.000000
  0
LINE
  8
0
 10
      205.920013
 20
      347.799987
 30
        0.000000
 11
      208.320007
 21
      350.199981
 31
        0.000000
  0
LINE
  8
0
 10
      205.920013
 20
      350.199951
 30
        0.000000
 11
      208.320007
 21
      347.799957
 31
        0.000000
  0
CIRCLE
  8
0
 10
      207.119995
 20
      348.999969
 30
        0.000000
 40
        3.000000
  0
LINE
  8
0
 10
      205.920013
 20
      425.799987
 30
        0.000000
 11
      208.320007
 21
      428.199981
 31
        0.000000
  0
LINE
  8
0
 10
      205.920013
 20
      428.199951
 30
        0.000000
 11
      208.320007
 21
      425.799957
 31
        0.000000
  0
CIRCLE
  8
0
 10
      207.119995
 20
      426.999969
 30
        0.000000
 40
        3.000000
  0
CIRCLE
  8
0
 10
      241.119987
 20
      348.999984
 30
        0.000000
 40
        1.799999
  0
CIRCLE
  8
0
 10
      241.119987
 20
      427.000045
 30
        0.000000
 40
        1.799999
  0
LINE
  8
0
 10
      253.749961
 20
      473.800003
 30
        0.000000
 11
      253.749961
 21
      475.000000
 31
        0.000000
  0
LINE
  8
0
 10
      253.749961
 20
      475.000000
 30
        0.000000
 11
      242.500061
 21
      475.000000
 31
        0.000000
  0
LINE
  8
0
 10
      271.749961
 20
      473.800003
 30
        0.000000
 11
      273.749961
 21
      471.799957
 31
        0.000000
  0
CIRCLE
  8
0
 10
      263.749961
 20
      470.000000
 30
        0.000000
 40
        2.000000
  0
CIRCLE
  8
0
 10
      263.749961
 20
      470.000000
 30
        0.000000
 40
        1.500000
  0
LINE
  8
0
 10
      271.749961
 20
      430.499969
 30
        0.000000
 11
      271.749961
 21
      345.499908
 31
        0.000000
  0
LINE
  8
0
 10
      266.349967
 20
      365.759918
 30
        0.000000
 11
      266.349967
 21
      410.239960
 31
        0.000000
  0
LINE
  8
0
 10
      266.349967
 20
      410.239960
 30
        0.000000
 11
      259.349967
 21
      410.239960
 31
        0.000000
  0
LINE
  8
0
 10
      266.349967
 20
      365.759918
 30
        0.000000
 11
      259.349967
 21
      365.759918
 31
        0.000000
  0
LINE
  8
0
 10
      259.349967
 20
      365.759918
 30
        0.000000
 11
      259.349967
 21
      410.239960
 31
        0.000000
  0
CIRCLE
  8
0
 10
      263.049979
 20
      368.314911
 30
        0.000000
 40
        1.150024
  0
CIRCLE
  8
0
 10
      263.049979
 20
      407.684906
 30
        0.000000
 40
        1.150024
  0
CIRCLE
  8
0
 10
      263.749961
 20
      426.999969
 30
        0.000000
 40
        3.000000
  0
CIRCLE
  8
0
 10
      263.749961
 20
      348.999969
 30
        0.000000
 40
        3.000000
  0
LINE
  8
0
 10
      262.549979
 20
      425.799988
 30
        0.000000
 11
      264.949973
 21
      428.199982
 31
        0.000000
  0
LINE
  8
0
 10
      262.549979
 20
      428.199951
 30
        0.000000
 11
      264.949973
 21
      425.799957
 31
        0.000000
  0
LINE
  8
0
 10
      262.549979
 20
      347.799988
 30
        0.000000
 11
      264.949973
 21
      350.199982
 31
        0.000000
  0
LINE
  8
0
 10
      262.549979
 20
      350.199951
 30
        0.000000
 11
      264.949973
 21
      347.799957
 31
        0.000000
  0
LINE
  8
0
 10
      266.349967
 20
      410.239990
 30
        0.000000
 11
      259.349967
 21
      410.239990
 31
        0.000000
  0
LINE
  8
0
 10
      266.349967
 20
      365.759979
 30
        0.000000
 11
      259.349967
 21
      365.759979
 31
        0.000000
  0
LINE
  8
0
 10
      266.349967
 20
      406.439972
 30
        0.000000
 11
      259.349967
 21
      406.439972
 31
        0.000000
  0
LINE
  8
0
 10
      266.349967
 20
      369.559967
 30
        0.000000
 11
      259.349967
 21
      369.559967
 31
        0.000000
  0
LINE
  8
0
  6
CENTER
 10
      263.749961
 20
      253.600000
 30
        0.000000
 11
      263.749961
 21
      246.400000
 31
        0.000000
  0
LINE
  8
0
  6
CENTER
 10
      267.349961
 20
      250.000000
 30
        0.000000
 11
      260.149961
 21
      250.000000
 31
        0.000000
  0
LINE
  8
0
  6
CENTER
 10
      263.749961
 20
      453.600000
 30
        0.000000
 11
      263.749961
 21
      446.400000
 31
        0.000000
  0
LINE
  8
0
  6
CENTER
 10
      267.349961
 20
      450.000000
 30
        0.000000
 11
      260.149961
 21
      450.000000
 31
        0.000000
  0
LINE
  8
0
 10
      266.749961
 20
      250.000000
 30
        0.000000
 11
      266.749961
 21
      245.196152
 31
        0.000000
  0
LINE
  8
0
 10
      260.749961
 20
      250.000000
 30
        0.000000
 11
      260.749961
 21
      245.196152
 31
        0.000000
  0
LINE
  8
0
 10
      260.749961
 20
      234.000000
 30
        0.000000
 11
      260.749961
 21
      234.803864
 31
        0.000000
  0
LINE
  8
0
 10
      266.749961
 20
      234.000000
 30
        0.000000
 11
      266.749961
 21
      234.803833
 31
        0.000000
  0
ARC
  8
0
 10
      263.749961
 20
      240.000000
 30
        0.000000
 40
        6.000000
 50
      119.999997
 51
      240.000013
  0
ARC
  8
0
 10
      263.749961
 20
      240.000000
 30
        0.000000
 40
        6.000013
 50
      299.999944
 51
      420.000066
  0
ARC
  8
0
 10
      263.749961
 20
      250.000000
 30
        0.000000
 40
        3.000000
 50
        0.000000
 51
      180.000015
  0
LINE
  8
0
 10
      266.749961
 20
      450.000000
 30
        0.000000
 11
      266.749961
 21
      445.196152
 31
        0.000000
  0
ARC
  8
0
 10
      263.749961
 20
      440.000000
 30
        0.000000
 40
        6.000013
 50
      299.999944
 51
      420.000066
  0
ARC
  8
0
 10
      263.749961
 20
      450.000000
 30
        0.000000
 40
        3.000000
 50
        0.000000
 51
      180.000015
  0
LINE
  8
0
 10
      266.749961
 20
      434.000000
 30
        0.000000
 11
      266.749961
 21
      434.803833
 31
        0.000000
  0
LINE
  8
0
 10
      260.749961
 20
      450.000000
 30
        0.000000
 11
      260.749961
 21
      445.196152
 31
        0.000000
  0
LINE
  8
0
 10
      260.749961
 20
      434.000000
 30
        0.000000
 11
      260.749961
 21
      434.803864
 31
        0.000000
  0
ARC
  8
0
 10
      263.749961
 20
      440.000000
 30
        0.000000
 40
        6.000000
 50
      119.999997
 51
      240.000013
  0
LINE
  8
0
 10
      253.749961
 20
      225.000000
 30
        0.000000
 11
      253.749961
 21
      226.199997
 31
        0.000000
  0
LINE
  8
0
 10
      253.749961
 20
      225.000000
 30
        0.000000
 11
      242.500061
 21
      225.000000
 31
        0.000000
  0
LINE
  8
0
 10
      273.749961
 20
      258.000000
 30
        0.000000
 11
      257.749961
 21
      258.000000
 31
        0.000000
  0
LINE
  8
0
 10
      273.749961
 20
      228.199997
 30
        0.000000
 11
      271.749961
 21
      226.199997
 31
        0.000000
  0
CIRCLE
  8
0
 10
      263.749961
 20
      230.000000
 30
        0.000000
 40
        2.000000
  0
CIRCLE
  8
0
 10
      263.749961
 20
      230.000000
 30
        0.000000
 40
        1.500000
  0
ARC
  8
0
 10
      257.749961
 20
      236.000000
 30
        0.000000
 40
        2.000000
 50
      180.000015
 51
      270.000000
  0
ARC
  8
0
 10
      257.749961
 20
      256.000000
 30
        0.000000
 40
        2.000000
 50
       90.000000
 51
      180.000015
  0
LINE
  8
0
 10
      273.749961
 20
      234.000000
 30
        0.000000
 11
      257.749961
 21
      234.000000
 31
        0.000000
  0
LINE
  8
0
 10
      255.749961
 20
      256.000000
 30
        0.000000
 11
      255.749961
 21
      236.000000
 31
        0.000000
  0
LINE
  8
0
 10
      272.550010
 20
      421.999969
 30
        0.000000
 11
      272.550010
 21
      353.999969
 31
        0.000000
  0
LINE
  8
0
 10
      273.749961
 20
      421.999969
 30
        0.000000
 11
      273.749961
 21
      353.999969
 31
        0.000000
  0
LINE
  8
0
 10
      273.749961
 20
      421.999969
 30
        0.000000
 11
      271.749961
 21
      421.999969
 31
        0.000000
  0
LINE
  8
0
 10
      273.749961
 20
      353.999969
 30
        0.000000
 11
      271.749961
 21
      353.999969
 31
        0.000000
  0
LINE
  8
0
 10
      273.749961
 20
      423.999969
 30
        0.000000
 11
      271.749961
 21
      423.999969
 31
        0.000000
  0
LINE
  8
0
 10
      273.749961
 20
      351.999969
 30
        0.000000
 11
      271.749961
 21
      351.999969
 31
        0.000000
  0
LINE
  8
0
 10
      273.749961
 20
      434.000000
 30
        0.000000
 11
      257.749961
 21
      434.000000
 31
        0.000000
  0
LINE
  8
0
 10
      255.749961
 20
      456.000000
 30
        0.000000
 11
      255.749961
 21
      436.000000
 31
        0.000000
  0
ARC
  8
0
 10
      257.749961
 20
      436.000000
 30
        0.000000
 40
        2.000000
 50
      180.000015
 51
      270.000000
  0
ARC
  8
0
 10
      257.749961
 20
      456.000000
 30
        0.000000
 40
        2.000000
 50
       90.000000
 51
      180.000015
  0
LINE
  8
0
 10
      273.749961
 20
      458.000000
 30
        0.000000
 11
      257.749961
 21
      458.000000
 31
        0.000000
  0
LINE
  8
0
 10
      -16.250000
 20
      473.800003
 30
        0.000000
 11
      271.749961
 21
      473.800003
 31
        0.000000
  0
LINE
  8
0
 10
      271.749961
 20
      345.499908
 30
        0.000000
 11
      -34.250000
 21
      345.499908
 31
        0.000000
  0
LINE
  8
0
 10
      271.749961
 20
      430.499969
 30
        0.000000
 11
      -34.250000
 21
      430.499969
 31
        0.000000
  0
LINE
  8
0
 10
      -16.250000
 20
      226.199997
 30
        0.000000
 11
      271.749961
 21
      226.199997
 31
        0.000000
  0
LINE
  8
0
 10
      336.050079
 20
      365.759979
 30
        0.000000
 11
      336.050079
 21
      353.199921
 31
        0.000000
  0
LINE
  8
0
 10
      334.100006
 20
      406.439972
 30
        0.000000
 11
      334.100006
 21
      410.239990
 31
        0.000000
  0
LINE
  8
0
 10
      340.150055
 20
      370.559967
 30
        0.000000
 11
      340.150055
 21
      405.439972
 31
        0.000000
  0
LINE
  8
0
 10
      341.150055
 20
      370.559967
 30
        0.000000
 11
      340.150055
 21
      370.559967
 31
        0.000000
  0
LINE
  8
0
 10
      341.150055
 20
      405.439972
 30
        0.000000
 11
      340.150055
 21
      405.439972
 31
        0.000000
  0
LINE
  8
0
 10
      341.150055
 20
      365.759979
 30
        0.000000
 11
      334.100006
 21
      365.759979
 31
        0.000000
  0
LINE
  8
0
 10
      341.150055
 20
      410.239990
 30
        0.000000
 11
      334.100006
 21
      410.239990
 31
        0.000000
  0
LINE
  8
0
 10
      334.100006
 20
      365.759979
 30
        0.000000
 11
      334.100006
 21
      369.559967
 31
        0.000000
  0
LINE
  8
0
 10
      334.100006
 20
      369.559967
 30
        0.000000
 11
      330.449860
 21
      369.559967
 31
        0.000000
  0
LINE
  8
0
 10
      334.100006
 20
      406.439972
 30
        0.000000
 11
      330.449860
 21
      406.439972
 31
        0.000000
  0
LINE
  8
0
 10
      330.449860
 20
      369.559967
 30
        0.000000
 11
      330.449860
 21
      406.439972
 31
        0.000000
  0
ARC
  8
0
 10
      340.410950
 20
      347.249969
 30
        0.000000
 40
        0.999990
 50
      196.957353
 51
      270.000000
  0
ARC
  8
0
 10
      340.410950
 20
      350.749969
 30
        0.000000
 40
        1.000000
 50
       90.000000
 51
      163.042657
  0
ARC
  8
0
 10
      346.150055
 20
      348.999969
 30
        0.000000
 40
        6.999976
 50
      163.042248
 51
      196.957762
  0
LINE
  8
0
 10
      340.410950
 20
      346.249969
 30
        0.000000
 11
      341.150085
 21
      346.249969
 31
        0.000000
  0
LINE
  8
0
 10
      340.410950
 20
      351.749969
 30
        0.000000
 11
      341.150085
 21
      351.749969
 31
        0.000000
  0
ARC
  8
0
 10
      340.410950
 20
      425.249969
 30
        0.000000
 40
        0.999990
 50
      196.957353
 51
      270.000000
  0
ARC
  8
0
 10
      340.410950
 20
      428.749969
 30
        0.000000
 40
        1.000000
 50
       90.000000
 51
      163.042657
  0
ARC
  8
0
 10
      346.150055
 20
      426.999969
 30
        0.000000
 40
        6.999976
 50
      163.042248
 51
      196.957762
  0
LINE
  8
0
 10
      340.410950
 20
      424.249969
 30
        0.000000
 11
      341.150085
 21
      424.249969
 31
        0.000000
  0
LINE
  8
0
 10
      340.410950
 20
      429.749969
 30
        0.000000
 11
      341.150085
 21
      429.749969
 31
        0.000000
  0
LINE
  8
0
 10
      342.750031
 20
      431.499969
 30
        0.000000
 11
      341.150055
 21
      431.499969
 31
        0.000000
  0
LINE
  8
0
 10
      341.150055
 20
      344.499939
 30
        0.000000
 11
      342.750031
 21
      344.499939
 31
        0.000000
  0
LINE
  8
0
 10
      341.150055
 20
      353.199921
 30
        0.000000
 11
      336.050079
 21
      353.199921
 31
        0.000000
  0
LINE
  8
0
 10
      341.150055
 20
      422.799957
 30
        0.000000
 11
      336.050079
 21
      422.799957
 31
        0.000000
  0
LINE
  8
0
 10
      336.050079
 20
      358.199921
 30
        0.000000
 11
      329.650055
 21
      358.199921
 31
        0.000000
  0
LINE
  8
0
 10
      336.050079
 20
      417.799957
 30
        0.000000
 11
      329.650055
 21
      417.799957
 31
        0.000000
  0
LINE
  8
0
 10
      329.650055
 20
      417.799957
 30
        0.000000
 11
      329.650055
 21
      358.199921
 31
        0.000000
  0
LINE
  8
0
 10
      336.050079
 20
      422.799957
 30
        0.000000
 11
      336.050079
 21
      410.239990
 31
        0.000000
  0
LINE
  8
0
 10
      342.750031
 20
      431.499969
 30
        0.000000
 11
      342.750031
 21
      344.499939
 31
        0.000000
  0
LINE
  8
0
 10
      341.150055
 20
      431.499969
 30
        0.000000
 11
      341.150055
 21
      344.499939
 31
        0.000000
  0
LINE
  8
0
 10
      330.750000
 20
      225.000000
 30
        0.000000
 11
      341.949951
 21
      225.000000
 31
        0.000000
  0
LINE
  8
0
 10
      330.750000
 20
      226.199997
 30
        0.000000
 11
      330.750000
 21
      225.000000
 31
        0.000000
  0
LINE
  8
0
 10
      330.750000
 20
      226.199997
 30
        0.000000
 11
      343.949951
 21
      226.199997
 31
        0.000000
  0
LINE
  8
0
 10
      343.949951
 20
      473.000000
 30
        0.000000
 11
      343.949951
 21
      423.699966
 31
        0.000000
  0
LINE
  8
0
 10
      341.949951
 20
      475.000000
 30
        0.000000
 11
      330.750000
 21
      475.000000
 31
        0.000000
  0
LINE
  8
0
 10
      330.750000
 20
      475.000000
 30
        0.000000
 11
      330.750000
 21
      473.800003
 31
        0.000000
  0
LINE
  8
0
 10
      343.949951
 20
      473.800003
 30
        0.000000
 11
      330.750000
 21
      473.800003
 31
        0.000000
  0
LINE
  8
0
 10
      343.949951
 20
      226.199997
 30
        0.000000
 11
      343.949951
 21
      258.000000
 31
        0.000000
  0
LINE
  8
0
 10
      343.949951
 20
      351.999969
 30
        0.000000
 11
      343.949951
 21
      352.299969
 31
        0.000000
  0
LINE
  8
0
 10
      342.750000
 20
      351.999969
 30
        0.000000
 11
      347.750000
 21
      351.999969
 31
        0.000000
  0
LINE
  8
0
 10
      347.750000
 20
      351.999969
 30
        0.000000
 11
      347.750000
 21
      258.000000
 31
        0.000000
  0
LINE
  8
0
 10
      346.550049
 20
      421.499969
 30
        0.000000
 11
      346.550049
 21
      423.699966
 31
        0.000000
  0
LINE
  8
0
 10
      346.550049
 20
      353.499969
 30
        0.000000
 11
      346.550049
 21
      353.999969
 31
        0.000000
  0
LINE
  8
0
 10
      342.750000
 20
      421.499969
 30
        0.000000
 11
      347.750000
 21
      421.499969
 31
        0.000000
  0
LINE
  8
0
 10
      342.750000
 20
      353.999969
 30
        0.000000
 11
      347.750000
 21
      353.999969
 31
        0.000000
  0
LINE
  8
0
 10
      342.750000
 20
      421.499969
 30
        0.000000
 11
      342.750000
 21
      353.999969
 31
        0.000000
  0
LINE
  8
0
 10
      343.949951
 20
      234.000000
 30
        0.000000
 11
      342.750000
 21
      234.000000
 31
        0.000000
  0
LINE
  8
0
 10
      347.750000
 20
      258.000000
 30
        0.000000
 11
      342.750000
 21
      258.000000
 31
        0.000000
  0
LINE
  8
0
 10
      343.949951
 20
      352.299969
 30
        0.000000
 11
      346.550049
 21
      352.299969
 31
        0.000000
  0
LINE
  8
0
 10
      343.949951
 20
      423.699966
 30
        0.000000
 11
      346.550049
 21
      423.699966
 31
        0.000000
  0
LINE
  8
0
 10
      343.949951
 20
      353.499969
 30
        0.000000
 11
      346.550049
 21
      353.499969
 31
        0.000000
  0
LINE
  8
0
 10
      343.949951
 20
      422.499969
 30
        0.000000
 11
      346.550049
 21
      422.499969
 31
        0.000000
  0
LINE
  8
0
 10
      342.750000
 20
      473.800003
 30
        0.000000
 11
      342.750000
 21
      423.699966
 31
        0.000000
  0
LINE
  8
0
 10
      347.750000
 20
      422.499969
 30
        0.000000
 11
      347.750000
 21
      353.499969
 31
        0.000000
  0
ARC
  8
0
 10
      341.949951
 20
      227.000000
 30
        0.000000
 40
        2.000000
 50
      270.000000
 51
      360.000000
  0
ARC
  8
0
 10
      341.949951
 20
      473.000000
 30
        0.000000
 40
        2.000000
 50
        0.000000
 51
       90.000000
  0
ARC
  8
0
 10
      346.550049
 20
      353.499969
 30
        0.000000
 40
        1.200012
 50
      270.000000
 51
      360.000000
  0
ARC
  8
0
 10
      343.949951
 20
      352.299969
 30
        0.000000
 40
        1.200012
 50
       90.000000
 51
      180.000015
  0
ARC
  8
0
 10
      346.550049
 20
      422.499969
 30
        0.000000
 40
        1.199951
 50
        0.000000
 51
       90.000000
  0
ARC
  8
0
 10
      343.949951
 20
      423.699966
 30
        0.000000
 40
        1.199951
 50
      180.000015
 51
      270.000000
  0
LINE
  8
0
 10
      345.150024
 20
      232.800003
 30
        0.000000
 11
      345.150024
 21
      226.500000
 31
        0.000000
  0
LINE
  8
0
 10
      345.150024
 20
      226.500000
 30
        0.000000
 11
      343.949951
 21
      226.500000
 31
        0.000000
  0
LINE
  8
0
 10
      345.150024
 20
      232.800003
 30
        0.000000
 11
      346.550049
 21
      232.800003
 31
        0.000000
  0
LINE
  8
0
 10
      346.550049
 20
      234.000000
 30
        0.000000
 11
      345.150024
 21
      234.000000
 31
        0.000000
  0
LINE
  8
0
 10
      346.550049
 20
      258.000000
 30
        0.000000
 11
      346.550049
 21
      234.000000
 31
        0.000000
  0
LINE
  8
0
 10
      347.750000
 20
      258.000000
 30
        0.000000
 11
      347.750000
 21
      234.000000
 31
        0.000000
  0
ARC
  8
0
 10
      345.150024
 20
      232.800003
 30
        0.000000
 40
        1.200012
 50
       90.000000
 51
      180.000015
  0
ARC
  8
0
 10
      346.550049
 20
      234.000000
 30
        0.000000
 40
        1.200012
 50
      270.000000
 51
      360.000000
  0
LINE
  8
0
 10
      345.150024
 20
      432.800003
 30
        0.000000
 11
      345.150024
 21
      426.000000
 31
        0.000000
  0
LINE
  8
0
 10
      345.150024
 20
      426.000000
 30
        0.000000
 11
      343.949951
 21
      426.000000
 31
        0.000000
  0
LINE
  8
0
 10
      345.150024
 20
      432.800003
 30
        0.000000
 11
      346.550049
 21
      432.800003
 31
        0.000000
  0
LINE
  8
0
 10
      346.550049
 20
      434.000000
 30
        0.000000
 11
      345.150024
 21
      434.000000
 31
        0.000000
  0
LINE
  8
0
 10
      346.550049
 20
      459.199997
 30
        0.000000
 11
      345.150024
 21
      459.199997
 31
        0.000000
  0
LINE
  8
0
 10
      346.550049
 20
      458.000000
 30
        0.000000
 11
      345.150024
 21
      458.000000
 31
        0.000000
  0
LINE
  8
0
 10
      345.150024
 20
      466.000000
 30
        0.000000
 11
      343.949951
 21
      466.000000
 31
        0.000000
  0
LINE
  8
0
 10
      346.550049
 20
      458.000000
 30
        0.000000
 11
      346.550049
 21
      434.000000
 31
        0.000000
  0
LINE
  8
0
 10
      345.150024
 20
      466.000000
 30
        0.000000
 11
      345.150024
 21
      459.199997
 31
        0.000000
  0
LINE
  8
0
 10
      347.750000
 20
      458.000000
 30
        0.000000
 11
      347.750000
 21
      434.000000
 31
        0.000000
  0
ARC
  8
0
 10
      345.150024
 20
      432.800003
 30
        0.000000
 40
        1.200012
 50
       90.000000
 51
      180.000015
  0
ARC
  8
0
 10
      346.550049
 20
      434.000000
 30
        0.000000
 40
        1.200012
 50
      270.000000
 51
      360.000000
  0
ARC
  8
0
 10
      346.550049
 20
      458.000000
 30
        0.000000
 40
        1.199951
 50
        0.000000
 51
       90.000000
  0
ARC
  8
0
 10
      345.150024
 20
      459.199997
 30
        0.000000
 40
        1.200073
 50
      180.000015
 51
      270.000000
  0
LINE
  8
0
 10
      254.750000
 20
      123.800003
 30
        0.000000
 11
      271.749961
 21
      123.800003
 31
        0.000000
  0
LINE
  8
0
 10
      271.749961
 20
       -4.500092
 30
        0.000000
 11
      254.750000
 21
       -4.500092
 31
        0.000000
  0
LINE
  8
0
 10
      271.749961
 20
       80.499969
 30
        0.000000
 11
      254.750000
 21
       80.499969
 31
        0.000000
  0
LINE
  8
0
 10
      254.750000
 20
     -123.800003
 30
        0.000000
 11
      271.749961
 21
     -123.800003
 31
        0.000000
  0
LINE
  8
0
 10
      273.749961
 20
      108.000000
 30
        0.000000
 11
      257.749961
 21
      108.000000
 31
        0.000000
  0
ARC
  8
0
 10
      257.749961
 20
      106.000000
 30
        0.000000
 40
        2.000000
 50
       90.000000
 51
      180.000015
  0
ARC
  8
0
 10
      257.749961
 20
       86.000000
 30
        0.000000
 40
        2.000000
 50
      180.000015
 51
      270.000000
  0
LINE
  8
0
 10
      255.749961
 20
      106.000000
 30
        0.000000
 11
      255.749961
 21
       86.000000
 31
        0.000000
  0
LINE
  8
0
 10
      273.749961
 20
       84.000000
 30
        0.000000
 11
      257.749961
 21
       84.000000
 31
        0.000000
  0
LINE
  8
0
 10
      273.749961
 20
        1.999969
 30
        0.000000
 11
      271.749961
 21
        1.999969
 31
        0.000000
  0
LINE
  8
0
 10
      273.749961
 20
       73.999969
 30
        0.000000
 11
      271.749961
 21
       73.999969
 31
        0.000000
  0
LINE
  8
0
 10
      273.749961
 20
        3.999969
 30
        0.000000
 11
      271.749961
 21
        3.999969
 31
        0.000000
  0
LINE
  8
0
 10
      273.749961
 20
       71.999969
 30
        0.000000
 11
      271.749961
 21
       71.999969
 31
        0.000000
  0
LINE
  8
0
 10
      273.749961
 20
       71.999969
 30
        0.000000
 11
      273.749961
 21
        3.999969
 31
        0.000000
  0
LINE
  8
0
 10
      272.550010
 20
       71.999969
 30
        0.000000
 11
      272.550010
 21
        3.999969
 31
        0.000000
  0
LINE
  8
0
 10
      255.749961
 20
      -94.000000
 30
        0.000000
 11
      255.749961
 21
     -114.000000
 31
        0.000000
  0
LINE
  8
0
 10
      273.749961
 20
     -116.000000
 30
        0.000000
 11
      257.749961
 21
     -116.000000
 31
        0.000000
  0
ARC
  8
0
 10
      257.749961
 20
      -94.000000
 30
        0.000000
 40
        2.000000
 50
       90.000000
 51
      180.000015
  0
ARC
  8
0
 10
      257.749961
 20
     -114.000000
 30
        0.000000
 40
        2.000000
 50
      180.000015
 51
      270.000000
  0
CIRCLE
  8
0
 10
      263.749961
 20
     -120.000000
 30
        0.000000
 40
        1.500000
  0
CIRCLE
  8
0
 10
      263.749961
 20
     -120.000000
 30
        0.000000
 40
        2.000000
  0
LINE
  8
0
 10
      273.749961
 20
     -121.800003
 30
        0.000000
 11
      271.749961
 21
     -123.800003
 31
        0.000000
  0
LINE
  8
0
 10
      273.749961
 20
      -92.000000
 30
        0.000000
 11
      257.749961
 21
      -92.000000
 31
        0.000000
  0
ARC
  8
0
 10
      263.749961
 20
       90.000000
 30
        0.000000
 40
        6.000000
 50
      119.999997
 51
      240.000013
  0
LINE
  8
0
 10
      260.749961
 20
       84.000000
 30
        0.000000
 11
      260.749961
 21
       84.803864
 31
        0.000000
  0
LINE
  8
0
 10
      260.749961
 20
      100.000000
 30
        0.000000
 11
      260.749961
 21
       95.196152
 31
        0.000000
  0
LINE
  8
0
 10
      266.749961
 20
       84.000000
 30
        0.000000
 11
      266.749961
 21
       84.803833
 31
        0.000000
  0
ARC
  8
0
 10
      263.749961
 20
      100.000000
 30
        0.000000
 40
        3.000000
 50
        0.000000
 51
      180.000015
  0
ARC
  8
0
 10
      263.749961
 20
       90.000000
 30
        0.000000
 40
        6.000013
 50
      299.999944
 51
      420.000066
  0
LINE
  8
0
 10
      266.749961
 20
      100.000000
 30
        0.000000
 11
      266.749961
 21
       95.196152
 31
        0.000000
  0
ARC
  8
0
 10
      263.749961
 20
     -100.000000
 30
        0.000000
 40
        3.000000
 50
        0.000000
 51
      180.000015
  0
ARC
  8
0
 10
      263.749961
 20
     -110.000000
 30
        0.000000
 40
        6.000013
 50
      299.999944
 51
      420.000066
  0
ARC
  8
0
 10
      263.749961
 20
     -110.000000
 30
        0.000000
 40
        6.000000
 50
      119.999997
 51
      240.000013
  0
LINE
  8
0
 10
      266.749961
 20
     -116.000000
 30
        0.000000
 11
      266.749961
 21
     -115.196167
 31
        0.000000
  0
LINE
  8
0
 10
      260.749961
 20
     -116.000000
 30
        0.000000
 11
      260.749961
 21
     -115.196136
 31
        0.000000
  0
LINE
  8
0
 10
      260.749961
 20
     -100.000000
 30
        0.000000
 11
      260.749961
 21
     -104.803848
 31
        0.000000
  0
LINE
  8
0
 10
      266.749961
 20
     -100.000000
 30
        0.000000
 11
      266.749961
 21
     -104.803848
 31
        0.000000
  0
LINE
  8
0
  6
CENTER
 10
      267.349961
 20
      100.000000
 30
        0.000000
 11
      260.149961
 21
      100.000000
 31
        0.000000
  0
LINE
  8
0
  6
CENTER
 10
      263.749961
 20
      103.600000
 30
        0.000000
 11
      263.749961
 21
       96.400000
 31
        0.000000
  0
LINE
  8
0
  6
CENTER
 10
      267.349961
 20
     -100.000000
 30
        0.000000
 11
      260.149961
 21
     -100.000000
 31
        0.000000
  0
LINE
  8
0
  6
CENTER
 10
      263.749961
 20
      -96.400000
 30
        0.000000
 11
      263.749961
 21
     -103.600000
 31
        0.000000
  0
LINE
  8
0
 10
      266.349967
 20
       19.559967
 30
        0.000000
 11
      259.349967
 21
       19.559967
 31
        0.000000
  0
LINE
  8
0
 10
      266.349967
 20
       56.439972
 30
        0.000000
 11
      259.349967
 21
       56.439972
 31
        0.000000
  0
LINE
  8
0
 10
      266.349967
 20
       15.759979
 30
        0.000000
 11
      259.349967
 21
       15.759979
 31
        0.000000
  0
LINE
  8
0
 10
      266.349967
 20
       60.239990
 30
        0.000000
 11
      259.349967
 21
       60.239990
 31
        0.000000
  0
LINE
  8
0
 10
      262.549979
 20
        0.199951
 30
        0.000000
 11
      264.949973
 21
       -2.200043
 31
        0.000000
  0
LINE
  8
0
 10
      262.549979
 20
       -2.200012
 30
        0.000000
 11
      264.949973
 21
        0.199982
 31
        0.000000
  0
LINE
  8
0
 10
      262.549979
 20
       78.199951
 30
        0.000000
 11
      264.949973
 21
       75.799957
 31
        0.000000
  0
LINE
  8
0
 10
      262.549979
 20
       75.799988
 30
        0.000000
 11
      264.949973
 21
       78.199982
 31
        0.000000
  0
CIRCLE
  8
0
 10
      263.749961
 20
       -1.000031
 30
        0.000000
 40
        3.000000
  0
CIRCLE
  8
0
 10
      263.749961
 20
       76.999969
 30
        0.000000
 40
        3.000000
  0
CIRCLE
  8
0
 10
      263.049979
 20
       57.684906
 30
        0.000000
 40
        1.150024
  0
CIRCLE
  8
0
 10
      263.049979
 20
       18.314911
 30
        0.000000
 40
        1.150024
  0
LINE
  8
0
 10
      259.349967
 20
       15.759918
 30
        0.000000
 11
      259.349967
 21
       60.239960
 31
        0.000000
  0
LINE
  8
0
 10
      266.349967
 20
       15.759918
 30
        0.000000
 11
      259.349967
 21
       15.759918
 31
        0.000000
  0
LINE
  8
0
 10
      266.349967
 20
       60.239960
 30
        0.000000
 11
      259.349967
 21
       60.239960
 31
        0.000000
  0
LINE
  8
0
 10
      266.349967
 20
       15.759918
 30
        0.000000
 11
      266.349967
 21
       60.239960
 31
        0.000000
  0
LINE
  8
0
 10
      271.749961
 20
       80.499969
 30
        0.000000
 11
      271.749961
 21
       -4.500092
 31
        0.000000
  0
CIRCLE
  8
0
 10
      263.749961
 20
      120.000000
 30
        0.000000
 40
        1.500000
  0
CIRCLE
  8
0
 10
      263.749961
 20
      120.000000
 30
        0.000000
 40
        2.000000
  0
LINE
  8
0
 10
      271.749961
 20
      123.800003
 30
        0.000000
 11
      273.749961
 21
      121.799957
 31
        0.000000
  0
LINE
  8
0
  6
CENTER
 10
      279.623096
 20
        0.000000
 30
        0.000000
 11
      -55.075507
 21
        0.000000
 31
        0.000000
  0
LINE
  8
0
 10
      271.750061
 20
      532.969501
 30
        0.000000
 11
      253.750061
 21
      532.969501
 31
        0.000000
  0
LINE
  8
0
 10
      271.750061
 20
      534.569507
 30
        0.000000
 11
      271.750061
 21
      532.969501
 31
        0.000000
  0
LINE
  8
0
 10
      273.750061
 20
      536.969532
 30
        0.000000
 11
      253.750061
 21
      536.969532
 31
        0.000000
  0
ENDSEC
  0
EOF
